Anal Cunt - Art Fag Chords & Tabs

 

Art Fag Chords & Tabs

Anal Cunt Chords & Tabs

Version: 2 Type: Tab 0 ratings
1 star 2 stars 3 stars 4 stars 5 stars
comments

Art Fag Tab

-------------------------------------------------------------------------------
			     Art Fag - Anal Cunt
-------------------------------------------------------------------------------
Tabbed by: Jared
Email: Ninja216@comcast.net

Tuning: Standard ~ eBGDAE ~
	Heavy Distortion

Intro:
  PM..........  Play this part extremely fast and basicly just make noise
e|------------|-------------------------|
B|------------|-------------------------|
G|------------|-------------------------|
D|-2--2--2--2-|-3-3-2-3-4-4-4---4~------|
A|-2--2--2--2-|-3-3-2-3-4-4-4---4~------|
E|-0--0--0--0-|-1-1-0-1-2-2-2---2~------|
[ Tab from: http://www.guitartabs.cc/tabs/a/anal_cunt/art_fag_tab_ver_2.html ]
Verse:
                      x4
e|---------------------|
B|---------------------|
G|-*-----------------*-|
D|-*-7-7-7-7-7-7--5--*-|
A|---7-7-7-7-7-7--5----|
E|---5-5-5-5-5-5--3----|

                                x2
e|-----------------|-------------|
B|-----------------|-------------|
G|-*---------------|-----------*-|
D|-*---------5--4--|-2-2-2-2-2-*-|
A|-----------5--4--|-2-2-2-2-2---|
E|---5--7p5--------|-0-0-0-0-0---|

Outro:
  Like intro, make noise
e|-----------------|
B|-----------------|
G|-----------------|
D|-3-3-2-2-4-4\3-3-|
A|-3-3-2-2-4-4\3-3-|
E|-1-1-0-0-2-2\1-1-|



e|----------------|
B|----------------|
G|----------------|
D|----------5--4--|
A|----------5--4--|
E|--5--7p5--------|

~Keys~

PM...	Palm Mute
P	Pull off
\	Slide down


Timing is off so listen to song, if you have any questions or comments, email me.
Comments