Anadivine - Cross Your Heart Chords & Tabs

 

Cross Your Heart Chords & Tabs

Anadivine Chords & Tabs

Version: 1 Type: Tab 0 ratings
1 star 2 stars 3 stars 4 stars 5 stars
comments

Cross Your Heart Tab

http://www.anadivine.com/
Anadivine - Cross your Heart
Tabbed by: Mike B.

Fuckin awesome Band and they had no tabs so I had to add mine.
The intro is 100% correct. 

Intro - Guitar 1 and 2
e|--------3-------------3------------------------|
B|-----------------------------------------------|
G|--5-4-5---5-4---5-4-5---5-4---5-4-5-7-7/8/9-5--|
D|-----------------------------------------------|
A|-----------------------------------------------|
E|-----------------------------------------------|

Guitar 1
e|--3-----3-----3--------------------------------|
B|----5-----5-----6-6-6-5-3----------------------|
G|------5-----5-------------5-4h5-7-5-4h5--------|
D|-----------------------------------------------|
A|-----------------------------------------------|
E|-----------------------------------------------|

Verse - Guitar 2 - Clean
e|--0-----0-----0------0----|
B|----0-----0-----0------0--|
G|--------------------------|
D|--------------------------|
A|--------------------------|
E|--------------------------|
[ Tab from: http://www.guitartabs.cc/tabs/a/anadivine/cross_your_heart_tab.html ]
Verse - Guitar 1 and 2 - Distortion
Listen to song to figure out how many times to play each chord
e|--------------------------|
B|--------------------------|
G|--7-----5-----------------|
D|--7-----5-----------------|
A|--5-----3-----------------|
E|--------------------------|

Prechorus - Guitar 1 - Play 4 times
e|----------0-1-3-1-0------------|
B|------1-3-----------3-1--------|
G|--0-2-------------------2-0----|
D|-------------------------------|
A|-------------------------------|
E|-------------------------------|

Riff before Chorus - Guitar 2 - Distortion
e|----------------------------|
B|----------------------------|
G|--5XX---7XX---5XX---7XX-----|
D|--5XX---7XX---5XX---7XX-----|
A|--3XX---5XX---3XX---5XX-----|
E|----------------------------|

Chorus - Guitar 1 and 2 plays intro

Breakdown - Palm Mute
e|---------|
B|---------|
G|---------|
D|--44-44--|
A|--44-44--|
E|--22-22--|

Guitar 1 - With Effects
e|----------0-1-3-1-0------------|
B|------1-3-----------3-1--------|
G|--0-2-------------------2-0----|
D|-------------------------------|
A|-------------------------------|
E|-------------------------------|

e|-----------|
B|-----------|
G|--99--99---|
D|--99--99---|
A|--77--77---|
E|-----------|

Outro - Guitar 1 and 2
e|--------3---------------|
B|------------------------|
G|--5-4-5---5-4-5---------|
D|------------------------|
A|------------------------|
E|------------------------|
Comments