Anaal Nathrakh - Submission Is For The Weak Chords & Tabs

 

Submission Is For The Weak Chords & Tabs

Anaal Nathrakh Chords & Tabs

Version: 1 Type: Tab 0 ratings
1 star 2 stars 3 stars 4 stars 5 stars
comments

Submission Is For The Weak Tab

   
------------------------------------------------------------------------------
Submission Is For The Weak - Anaal Nathrakh
-------------------------------------------------------------------------------
Tabbed by: Sick Steve

Tuning: Down 1 step

			              _________
Riff 1			           1,2,3 |

|--------------------------------|
|--------------------------------|
|--------------------------------|
|------10"----9"------6"---------|
|----7"-----7"---7"-8"--8"-------|
|-0------------------------------|
			              _________
				                 4 |

|--------------------------------|
|--------------------------------|
|--------------------------------|
|------10"----9"------6"---------|
|----8"-----8"---8"-8"--8"-------|
|-1------------------------------|

Riff 2

|------------------------------------|
|------------------------------------|
|--------------------------3"--------|
|----2"------------2"----------------|
|-----------2"-----------------------|
|-0"----0"-----0"-----0"1"-----------|

Riff 3
[ Tab from: http://www.guitartabs.cc/tabs/a/anaal_nathrakh/submission_is_for_the_weak_tab.html ]
|--------------------------------------------------|
|--------------------------------------------------|
|--------------------------------------------------|
|--------------------------------------------------|
|-2---------9---8-------7--------10--9---58-------|
|-0---------7---6-------5--------8---7---3--6------|
Listen to the song for the strumming pattern of this riff

Riff 4
		           _________
		                 1,2,3|
|------------------------|
|------------------------|
|------------------------|
|------------------------|
|-----3-----2---2-3/63---|
|-00001-0000-000-1/41----|
    . . . .     . . .     . .

		           _________
		    	               4|
|------------------------|
|------------------------|
|------------------------|
|------------------------|
|-----3-----3---3-3/63---|
|-11111-1111-111-1/41----|
   . . . .     . . .     . .

Riff 5

|----------------------------------------------------------|
|----------------------------------------------------------|
|-10"---9"-------8"---7"------7"---6"------6"---5"---------|
|----------11"-----------9"-----------8"-----------7"------|
|----------------------------------------------------------|
|----------------------------------------------------------|
Lead type guitar under bass

| /  slide up
| \  slide down
| h  hammer-on
| p  pull-off
| ~  vibrato
| +  harmonic
| .  Mute note
| "  Trem pick


I don't know if anyone can help me.
I can never seem to get my palm mutes and some of my notes to line up when I
Submit my tab.
I would be grateful for any assistance.

Any comments, suggestions and hate mail to: saltmakesmecough@yahoo.co.uk
Comments