An Acoustic Sin - The Apraisal Solo Chords & Tabs

 

The Apraisal Solo Chords & Tabs

An Acoustic Sin Chords & Tabs

Version: 1 Type: Tab 0 ratings
1 star 2 stars 3 stars 4 stars 5 stars
comments

The Apraisal Solo Tab

Hey...this is the long awaited apraisal solo.
The start is a little weird cause i think it's the live version,but here it is!



/   slide up
   slide down


E:----------------------------------------------------------------------------------------12----|
B:---------5-5-5-5--6-6-6-6--8-8-8-8--10-10-10-10--12-12-12-12--13-13-13-13--15-15-15-15--13----|
G:---------5-5-5-5--7-7-7-7--9-9-9-9--10-10-10-10--12-12-12-12--14-14-14-14--16-16-16-16--------|
D:----5-7---------------------------------------------------------------------------------------|
A:----------------------------------------------------------------------------------------------|
E:----------------------------------------------------------------------------------------------|


                                                                     trill     trill     trill    trill
E:------------------------------------------------12--13--15--17----(12~~13)--(10~~12)--(8~~10)--(7~~8)---|
B:------------------------------------12--13--15----------------------------------------------------------|
G:----------------------------12--14----------------------------------------------------------------------|
D:----------------12--14--15------------------------------------------------------------------------------|
A:----12--14--15------------------------------------------------------------------------------------------|
E:--------------------------------------------------------------------------------------------------------|



[ Tab from: http://www.guitartabs.cc/tabs/a/an_acoustic_sin/the_apraisal_solo_tab.html ]
E:-------------------------8----------10---------12---------13---------12---------10---------8---------------8--------|
B:----------------8--8/10------10/12------12/13------13/15------1513------1312------1210-----10--8-----8-----------|
G:-----------7/9---------------------------------------------------------------------------------------9--------10----|
D:--------5-----------------------------------------------------------------------------------------------------------|
A:---5/7--------------------------------------------------------------------------------------------------------------|
E:--------------------------------------------------------------------------------------------------------------------|

                                                          
                                                          This part,go as fast as you possibly can!!!
                                                                    Do this part three times.
                                                                             |
                                                                             |                   
                                                                            |/
                                                                 |-----------------------|
                                                                 |                       |

E:-----------12--15--13--12------13--12----------12--------------|-----------------------|--------------------------
B:-------13------------------15----------15--13------15--13--12--|-15--13--12------13--12|-----13-12-----------------
G:---14----------------------------------------------------------|-------------14--------|--14-------14-12-14~~~-----
D:---------------------------------------------------------------|-----------------------|----------------------------
A:---------------------------------------------------------------|-----------------------|---------------------------
E:---------------------------------------------------------------|-----------------------|---------------------------


Any questions or comments,voodoochile_88@hotmail.com  or at  voodooskull88@hotmail.com
Comments