Amy Ray - Measure Of Me Chords & Tabs

 

Measure Of Me Chords & Tabs

Amy Ray Chords & Tabs

Version: 1 Type: Tab 0 ratings
1 star 2 stars 3 stars 4 stars 5 stars
comments

Measure Of Me Tab

   
MEASURE OF ME, by Amy Ray

[standard tuning, no capo]

Bm:  x24432
Em:  022000
C:   x32010
D:   554030

INTRO:

e|-----------------------------------------|
B|-----------------------------------------|
G|----------------------0------------------|
D|--5-5-5-5-5-5-5-5-5-5-2---0-4-4-4-2-0----|
A|--3-3-3-0-5-5-5-0-3-0-2---2-2-2-2-2-2----|
E|----------------------0------------------|

e|-----------------------------------------|
B|-----------------------------------------|
G|----------------------0------------------|
D|--5-5-5-5-5-5-5-5-5-5-2---0-4-4-4-2-0----|
A|--3-3-3-0-5-5-5-0-3-0-2---2-2-2-2-2-2----|
E|----------------------0------------------|

VERSES:

 1) The boy ... damaged goods
 2) I wanna ... to the shore
 3) So this ... measure of me
e|-------------------------------------------|
B|-------------------------------------------|
G|----------------------0--------------------|
D|--5-5-5-5-5-5-5-5-5-5-2---0-4-4-4-2-0------|
A|--3-3-3-0-5-5-5-0-3-0-2---2-2-2-2-2-2------|
E|----------------------0--------------------|
[ Tab from: http://www.guitartabs.cc/tabs/a/amy_ray/measure_of_me_tab.html ]
 1) I know ...  he should
 2) i'm    ...  you know
 3) even   ...  shouldnt be
e|-------------------------------------------|
B|-------------------------------------------|
G|----------------------0--------------------|
D|--5-5-5-5-5-5-5-5-5-5-2---0-4-4-4-2-0------|
A|--3-3-3-0-5-5-5-0-3-0-2---2-2-2-2-2-2------|
E|----------------------0--------------------|

 1) I dress  ...take him down
 2) Is it    ... need in me
 3) The lion ... the lamb
e|-------------------------------------------|
B|-------------------------------------------|
G|----------------------0--------------------|
D|--5-5-5-5-5-5-5-5-5-5-2---0-4-4-4-2-0------|
A|--3-3-3-0-5-5-5-0-3-0-2---2-2-2-2-2-2------|
E|----------------------0--------------------|

 1) He gets embarresed ... come around
 2) or the girl that you could be
 3) i cant do it so i aint worth a damn
e|--------------------------------------------|
B|------------------------1----~---~----------|
G|--0----~-----~------~---2----~---~----------|
D|--2----~-----~------~---2----~---~----------|
A|--2----~-----~------~---0----~---~----------|
E|--0----~-----~------~-----------------------|


CHORUS:

Bm          Em        C   D
Come on now graceful,     I want you to be

Bm          Em        C   D
Come on now Social,       I want you to be

Bm          Em        C   D
Come on now special,      I want you to be

		      C   D
                          I want you to be

		      C   D
                          I want you

castmenotaway@hotmail.com
Comments