Amorphis - The Way Chords & Tabs

 

The Way Chords & Tabs

Amorphis Chords & Tabs

Version: 1 Type: Tab 0 ratings
1 star 2 stars 3 stars 4 stars 5 stars
comments

The Way Tab

Title: Amorphis - The Way (solo)

Autor: Tiago Ramalhais (tiagoramalhais@hotmail.com)


|----------------------------15--------------------------------------------------------------|
|-----------------13-15hb(17)---15(17)rb-13--------13-12-------------------------------12h13-|
|-12/(14)-14~~-14----====hold 
bend===------14~~-14-------14---------------12-14-12-14--------|
|-----------------------------------------------------------14-14--12h14---------------------|
|--------------------------------------------------------------------------------------------|
|--------------------------------------------------------------------------------------------|
[ Tab from: http://www.guitartabs.cc/tabs/a/amorphis/the_way_tab.html ]
|-15-----------------------------------------------------------------------------------------|
|----13-12-----------------------------------------------------------------------------------|
|----------14~~-12h14-------------12--------------12-----------12---------12-----------------|
|---------------------12-14-------12b(13)-12hb(13)+rb--12b(13)----12b(13)----12b(13)+r-10----|
|---------------------------12~~--===Hold 
Bend===-----------------------------------------12-|
|--------------------------------------------------------------------------------------------|

|------------------------------------------------------------------------|
|----------------------------13p10----10---------------------------------|
|----------------------------------12----12p9-12p9-----------------------|
|-10----10----12b(14)r-10--------------------------12-12/14\12-10--------|
|----12----12-------------12---------------------------------------12-0--|
|----------------------------------------------------------------------0-|
                                                                       +
(+)- This seems kinda weird but there is something being played here
i'm not shure its the right thing but it comes close.

|-------------------------|
|-15b(17)r-15-------------|
|-------------17p14-15p14-|
|-------------------------|
|-------------------------|
|-------------------------|

Note: There are some parts that have wawa,
i dont have a wawa so i just make it sound like it.
Comments