Amorphis - The Castaway Chords & Tabs

 

The Castaway Chords & Tabs

Amorphis Chords & Tabs

Version: 1 Type: Tab 0 ratings
1 star 2 stars 3 stars 4 stars 5 stars
comments

The Castaway Tab

   
#-----------------------------PLEASE NOTE-------------------------------------#
#This OLGA file is the author's own work and represents their interpretation  #
#of the song. You may only use this file for private study, scholarship, or   #
#research. Remember to view this file in Courier, or other monospaced font.   #
#See http://www.olga.net/faq/ for more information.                           #
#-----------------------------------------------------------------------------#

Subject: a/amorphis/the_castaway.tab

The Castaway - Amorphis
Trascription by : Ugo Gasparri
E-Mail address :  gasp_ste@iol.it
 
* Please e-mail me any death/black tab you have
* If you do this I will send you(if you leave your e-mail)
* the list of my black/death tabs 


This Tablature was created with TabExpert V.1.0.00 by Ugo Gasparri

Note about the song : Big part of the riffs of this song
                      are followed by the keyboard, 
                      this is another difficulty when
                      transcribing it.If you find something
                      wrong probably it's because of this
                      I found both the guitar solos
                      but i did'n write them down
                      Ask me a new version using e-mail

RIFF A

E-|---------------------------------------------------------------------
B-|---------------------------------------------------------------------
G-|--10-8-6----10-8-6--------10-8-6----10-8-6---------------------------
D-|---------10--------10-8-7--------10--------10-8----------------------
A-|---------------------------------------------------------------------
E-|---------------------------------------------------------------------
 
* This is the intro
* This riff is repeated about 16 times or more
* Try to play the "10" on the D string very
* attacched to the "6" on G string
    
RIFF B (x8)
[ Tab from: http://www.guitartabs.cc/tabs/a/amorphis/the_castaway_tab.html ]
E-|---------------------------------------------------------------------  ]
B-|---------------------------------------------------------------------  ]
G-|---------------------------------------------------------------------  ]
D-|------9--10--9-10-9----------------9--10--9-10-9---------------------  ]
A-|-10-----------------11-10-8-10--------------------11--10-------------  ]
E-|---------------------------------------------------------------------  ]
                                                                          ]
RIFF B1 (x4)                                                                          ]
E-|---------------------------------------------------------------------  ]
B-|---------------------------------------------------------------------  ]
G-|------9--10--9-10-9----------------9--10--9-10-9---------------------  ]
D-|-10-----------------11-10-8-10--------------------11--10-------------  ]
A-|---------------------------------------------------------------------  ]
E-|---------------------------------------------------------------------  ]
 
* This is the principal riff of the song
* Try to give it an "arabian" sound
* using effects(BOSS PS-2 is perfect(mode 4))


E-|---------------------------------------------------------------------
B-|---------------------------------------------------------------------
G-|---------------------------------------------------------------------
D-|---------------------------------------------------------------------
A-|-10---10-12/13-12-10-----------------------------9-------10---------
E-|---------------------13-10---8-10-11----11-10-11-----10--------------
 
* This riff is played under the lyrics
* I think it's fully correct
* If you want you can add the rithmic guitar

                                                         1
                                                        |---------------
E-|---------------------------------------------------------------------
B-|---------------------------------------------------------------------
G-|---------------------------------------------------------------------
D-|--8---10--12--10-12-10--8-------8--10--8-10-8------------------------
A-|---------------------------12-----------------12-10--10-12---10--9---
E-|-------------------------------------------------------------------10



    |---------
E-|---------------------------------------------------------------------
B-|---------------------------------------------------------------------
G-|---------------------------------------------------------------------
D-|---------------------------------------------------------------------
A-|--9-10-12-12---------------------------------------------------------
E-|---------------------------------------------------------------------

*  Alternate the end sections 1 and 2
*  It's important to find the right keyboard
*  part

E-|---------------------------------------------------------------------
B-|---------------------------------------------------------------------
G-|---------------------------------------------------------------------
D-|---------------------------------------------------------------------
A-|--/12-12-/14-14-/12-12-/14-14----------------------------------------
E-|---------------------------------------------------------------------
 
* Fill riff.This part is mostly
* keyboard
* Under the guitar solo there is a 
* riff similiar but not identical to RIFF B
* but it's a little different

E-|---------------------------------------------------------------------
B-|---------------------------------------------------------------------
G-|--------------------------------12-----------------------------------
D-|--7-8-7-8-10--7-8-7-8-10--10-10----8-10-9--7-7-----------------------
A-|-----------------------------------------------10-7------------------
E-|---------------------------------------------------------------------
 
* This is the beginning of the guitar solo

Hope it's useful
Remember to leave me an e-mail
============================== 
Comments