Amon Amarth - Victorious March Chords & Tabs

 

Victorious March Chords & Tabs

Amon Amarth Chords & Tabs

Version: 1 Type: Tab 0 ratings
1 star 2 stars 3 stars 4 stars 5 stars
comments

Victorious March Tab

   
From: "Pyaemia" 
Subject: TAB : Victorious March 95-1077945760one
Date: Thursday, September 27, 2001 10:22 PM

                        AMON AMARTH-VICTORIOUS MARCH
                        From the Album ONCE SENT FROM THE GOLDEN HALL
                        Copyright 1998 Metalblade Records
                        Version 1.5
/     slide up
\     slide down
p     pull on
h     hammer on
~     vibrato
.     palm mute


I have used the original tabs to transcribe this instead of re-writing
the riffs that were OK...

Original Author : Zack Demianczyk
Corrections     : Me!!!


Tuning: C  

Riff A.1
  .   .   .   .   .   .   .   .   .   .   .   .   .   .   .   . 
|------------------------------------------------------------------|
|------------------------------------------------------------------|
|------------------------------------------------------------------|
|---2---2---2---2---5---5---4---4---7---7---7---7---5---5---4---4--|
|------------------------------------------------------------------|
|-0---0---0---0---0---0---0---0---0---0---0---0---0---0---0---0----|

Riff A.2*2nd time theres a pick slide on 6th string at the end of this riff                                            
|------------------------------------------------------------------|
|------------------------------------------------------------------|
|------------------------------------------------------------------|
|-2----------------------------------------------------------------|
|-2----------------------------------------------------------------|
|-0----------------------------------------------------------------|


Riff B.1
  .   .   .   .   .   .   .   .   .   .   .   .   .   .   .   .
|------------------------------------------------------------------|
|------------------------------------------------------------------|
|------------------------------------------------------------------|
|---2---2---2---2---4---4---5---5---2---2---2---2---4---4---5---5--|
|-3---3---3---3---3---3---3---3---3---3---3---3---3---3---3---3----|
|------------------------------------------------------------------|

Riff B.2
|------------------------------------------------------------------|
|------------------------------------------------------------------|
|-5-----------------------------7----------5--------------------7--|
|-5-----------------------------7----------5--------------------5--|
|-3-----------------------------5----------3--------------------5--|
|-0----------------------------------------0-----------------------|


Riff C
|                                                                  |
|------------------------------------------------------------------|
|------------------------------------------------------------------|
|------------------------------------------------------------------|
|-2-2-2-2-2-2-0-2-5-5-5-5-4-4-5-4-7-7-7-7-7-7-7-7-7-5-5-5-5-7-7-5-4|
|------------------------------------------------------------------|
|------------------------------------------------------------------|

Riff D
|                                                                  |
|------------------------------------------------------------------|
|------------------------------------------------------------------|
|------------------------------------------------------------------|
|-2-2-2-2-2-2-2-2-4-4-4-4-5-5-4-5-2-2-2-2-2-2-2-2-4-4-4-4-5-5-4-5--|
|------------------------------------------------------------------|
|------------------------------------------------------------------|

Riff E
    ...    ...   ...   ...    ...    .  ...   ...   .    ...    ...
|---------------------------------------------------------------------|
|---------------------------------------------------------------------|
|---------------------------------------------------------------------|
|-------------------------------------9-----7-----9-------------------|
|-9-----10-----9-----9-----10-----9--------------------9-----10-----9-|
|---000----000---000---000----000---0---000---000---0----000----000---|



Riff F
|-----------------------------------------------------------|
|-----------------------------------------------------------|
|----------------------------------------------------7--7---|
|-2--------------------------------------------------7--7---|
|-2-let it ring--------------------------------------5--5---|
|-0---------------------------------------------------------|

Riff G
  .    .    .    .. .
|-------------------------|
|-------------------------|
|-------------------------|
|---2----2----2-----------|
|---2----2----2-----------|
|-0----0----0-----0-0-----|


Riff H
|---------------------------------------------------------------------|
|---------------------------------------------------------------------|
|---------------------------------------------------------------------|
|-2-2-2-2-2-2-2-2-5-5-5-2-2-2-5-5-5-4-4-4-4-4-4-4-4-4-7-7-7-5-5-5-5-5-|
|---------------------------------------------------------------------|
|---------------------------------------------------------------------|



Riff I.1
|-------------------------------------------------------------------|
|-------------------------------------------------------------------|
|---------------------4-4-4-------4-4-------------------------------|
|-2-2-2-2-2-2-2-5-5-5-------5-5-5-----4-4-4-4-4-4-4-4-4-4-4-4-4-4-4-|
|-------------------------------------------------------------------|
|-------------------------------------------------------------------|
[ Tab from: http://www.guitartabs.cc/tabs/a/amon_amarth/victorious_march_tab.html ]
Riff I.2
|-------------------------------------------------------------------|
|-------------------------------------------------------------------|
|---------------------4-4-4-------4-4-4-4-4-4-4-4-4-4-4-4-4-4-4-4-4-|
|-2-2-2-2-2-2-2-5-5-5-------5-5-5-----------------------------------|
|-------------------------------------------------------------------|
|-------------------------------------------------------------------|

I.1 and I.2 are played OVER this riff...

Riff J
|-------------------------------------------------------------------|
|-------------------------------------------------------------------|
|-------------------------------------------------------------------|
|-------------------------------------------------------------------|
|-7-7-7-7-7-7-7-7-7-7-7-7-7-7-7-7-5-5-5-5-5-5-5-5-------------------|
|-------------------------------------------------7-7-7-7-7-7-7-7---|


Riff K
|----------------------------------------------------------------------|
|-5-5-5-5-5-5-5-5-8-8-8-5-5-5-8-8-8-7-7-7-7-7-7-7-7-10-10-10-8-8-8-8-8-|
|----------------------------------------------------------------------|
|----------------------------------------------------------------------|
|----------------------------------------------------------------------|
|----------------------------------------------------------------------|


Riff L
  .    .    
|-----------|
|-----------|
|-----------|  -Pauses-
|---2----2--|     
|---2----2--|
|-0----0----|


Riff M
|------------------------------------------------------------------|
|------------------------------------------------------------------|
|-5-----------------------------7----------------------------------|
|-5-----------------------------7--------------------------2-------|
|-3-----------------------------5--------------------------2-------|
|-0--------------------------------------------------------0-------|

Riff N.1
|-------------------------------------------------------------------|
|-------------------------------------------------------------------|
|-----------------9-9-9-9-9-9-9-9-------------------9-9-9-9-9-9-9---|
|-------------------------------------------------------------------|
|-7-7-7-7-7-7-7-7-----------------9-9-9-9-9-9-9-9-------------------|
|-------------------------------------------------------------------|

Riff N.2
|-------------------------------------------------------------------|
|-------------------------------------------------------------------|
|-----------------9-9-9-9-9-9-9-9-------------------9-9-9-9-9-9-9---|
|--9---10--9---7-------------------9---10--9---7--------------------|
|-------------------------------------------------------------------|
|-------------------------------------------------------------------|

These are ALL the riffs! (If i forgot ANYTHING e-mail me)



If you are lost here is the song layout...

Legend
------

  ~  - See notes on right side

**** - Missing riffs,they are not hard,only not founy yet... 
       ill tab them when i have the time.You see many stars but
       there is only 3 missing riffs in this song.
--------------------------------------------------------------------------------

                -Song Layout-

| Guitar1 | #ofTimes | Guitar 2 | #ofTimes |
|Riff A.1      1     | Riff A.2      1     |
|Riff B.1      1     | Riff B.2      1     |
|Riff A.1      1     | Riff A.2~     1     |-Pick slide at the end of this riff... 
|Riff B.1      1     | Riff B.2      1     |
|Riff A.1      1     | Riff C        1     |
|Riff B.1      1     | Riff D        1     | 
|Riff A.1      1     | Riff C        1     |
|Riff B.1      1     | Riff D        1     |
|Riff E        4     | Riff E        4     |
|Riff F        1     | Riff F        1     |
|Riff G        4     | Riff G        4     |
|Riff H        1     | **** *        *     |
|Riff G        4     | Riff G        4     |
|Riff H        1     | **** *        *     |
|Riff I.1      1     | Riff J        1     |
|Riff I.2      1     | Riff J        1     |
|Riff I.1      1     | Riff J        1     |
|Riff I.2      1     | Riff J        1     |
|Riff G        4     | Riff G        4     |
|Riff K        1     | **** *        *     |
|Riff G        4     | Riff G        4     |
|Riff K        1     | **** *        *     |
|RIff L        2     | Riff L        2     |
|Riff G        4     | Riff G        4     |
|Riff K        1     | **** *        *     |
|Riff G        4     | Riff G        4     |
|Riff K        1     | **** *        *     |
|Riff I.1      1     | Riff J        1     |
|Riff I.2      1     | Riff J        1     |
|Riff I.1      1     | Riff J        1     |
|Riff I.2      1     | Riff J        1     |
|RIff E        4     | Riff E~       4     |-Solo starts somewhere in the middle of this...
|Solo *        *     | Riff J        2     |
|Solo *        *     | Riff M        2     |
|Riff N.1      1     | **** *        *     |
|Riff N.2      2     | **** *        *     |
|Riff N.1      1     | **** *        *     |
|Riff N.2      2     | **** *        *     |
|Riff N.1      1     | **** *        *     |
|Riff N.2      2     | **** *        *     |
|Riff N.1      1     | **** *        *     |
|Riff N.2      2     | **** *        *     |
|Riff A.1      1     | Riff A.2~     1     |-Pick slike at the end of this riff... 
|Riff B.1      1     | Riff B.2      1     |
|Riff A.1      1     | Riff C        1     |
|Riff B.1      1     | Riff D        1     |
|Riff A.1      1     | Riff C        1     |
|Riff B.1      1     | Riff D        1     |
|Riff A.1      1     | Riff C        1     |
|Riff B.1      1     | Riff D~       1     |-Play there is a missing part here... i just didnt find it yet...
|Riff A.1      1     | Riff C        1     |
|Riff B.1      1     | Riff D        1     |-Mini Solo is here...
|Riff A.1      1     | Riff C        1     |
|Riff B.1      1     | Riff D        1     |
 
               -fades away-
              
                 -The End-

Notes: Thats a big ass song :)  -7 minutes and 56 seconds-
Comments