Amon Amarth - The Pursuit Of Vikings Chords & Tabs

 

The Pursuit Of Vikings Chords & Tabs

Amon Amarth Chords & Tabs

Version: 1 Type: Tab 1 rating
1 star 2 stars 3 stars 4 stars 5 stars
comments

The Pursuit Of Vikings Tab



Band:   Amon Amarth
Album:  Fate of Norns
Song:   The Pursuit of Vikings

Copyright (c)  Metal Blade Records (2004)
Version 1.0 - 3-10-05

Tabed By: Robin Lindström
Email:Roblin917@hotmail.com


.  - palm mute           /  - slide up to
\  - slide down to       ~  - vibrato
h  - hammer on           b  - Bend
p  - pull off            Suffixes for bend
t  - tap                 f  - full bend    h - half bend
ph - pinched harmonic    q  - quarter bend t - tap bend
*  - see comment         ^  - Hold bend    r release bend
x  - Stuccatto           ~  - vibrato bend
,  - slight palm mute    () - ghost note, sustained note
"  - tremolo note         - Trill

This song is a great song on the Fate of norns record
I hope you will enjoy this tab.......



Intro
|-------------------------------|-------------------------------|
|-------------------------------|-------------------------------|
|-------------------------------|-------------------------------|
|-------------------------------|-------------------------------|
|-------------------------------|-------------------------------|
|---0--0-0-0--0--0-0-0--0-0-0---|---0--0-0-0--0--0-0-0--0-0-0---|
 pm .  . . .  .  . . .  . . .       .  . . .  .  . . .  . . .


||------------------------|---------------------------||
||------------------------|---------------------------||
||------------------------|---------------------------||
||------------------------|---------------------------||
||------------------------|---------------------------||
||--0-0-0-0-0-0-0-0-0-0-0-|-0-0-0-0-0-0-0-0-0-0-0-----||
|pm . . . . . . . . . . .   . . . . . . . . . . .
|
|
|
||------------------------|---------------------------||
||------------------------|---------------------------||
||------------------------|---------------------------||
||------------------------|---------------------------||
||------------------------|---------------------------||
||--0-0-0-0-0-0-0-0-0-0-0-|-0-0-0-0-0-0-0-0-0-0-0-----||
 pm . . . . . . . . . . .   . . . . . . . . . . .

Verse

||-------------------------|---------------------------||
||-------------------------|---------------------------||
||-------------------------|---------------------------||
||-------------------------|-9-------------------------||
||--7-------9-10-----7-----|---------------------------||
||----0-0-0--------0-----0-|---0-0-0-0-0-0-0-0-0-0-----||
|pm   . . .        .     .     . . . . . . . . . .
|
|
|
||-------------------------|---------------------------||
||-------------------------|---------------------------||
||-------------------------|---------------------------||
||-------------------------|---------------------------||
||-------------------------|---------------------------||
||--0-0-0-0-0--0-0-0-0-0-0-|-0-0-0-0-0-0-0-0-0-0-0-----||
 pm . . . . .  . . . . . .   . . . . . . . . . . .

||----------------------|---------------------||-----------------------|
||----------------------|---------------------||-----------------------|
||----------------------|---------------------||-----------------------|
||----------9-10---12---|-10-----9---7---7h9--||-10-----9--------------|
||----------------------|---------------------||------------10----9----|
||--7-7-7-7------7----7-|----7-----7---7------||----7-----7--8----7----|
|
|
||----------------------|---------------------||-----------------------|
||----------------------|---------------------||-----------------------|
||----------------------|---------------------||-----------------------|
||----------------------|---------------------||-----------------------|
||----------------------|---------------------||------------10----9----|
||--7-7-7-7-7--7-7--7-7-|--7-7-7-7-7-7-7-7-7--||--7-7-7-7-7--8----7----|
   Pre-Chorus


||----------------|--------------------|
||----------------|--------------------|
||----------------|--------------------|
||-------10-9-----|--------10-10-9-9-7-|
||--7----------7--|-7------------------|
||----------------|--------------------|
|
|
|
|
||----------------|--------------------|
||----------------|--------------------|
||----------------|--------------------|
||----------------|--------------------|
||--2-------------|-2------------------|
||--0----------0--|-0------------------|
 pm            .

|----------------------|----------------------||
|----------------------|----------------------||
|----------------------|----------------------||
|-10---10-10-10--10-10-|-9---9--9-9-----------||
|----------------------|------------10-10-10--||
|----------------------|----------------------||
|
|
|
|----------------------|----------------------||
|----------------------|----------------------||
|----------------------|----------------------||
|----------------------|----------------------||
|-10------10-10--10----|-9------9-9-----------||
|--8-------8--8---8----|-7------7-7--3--3--3--||
pm                                   .  .  .

 Chorus

||-----------------|-------------------|---------------------|
||-----------------|-------------------|---------------------|
||-----------------|-------------------|---------------------|
||--------10-9-----|-------10-10-9-9-7-|-10--10-10-10--10-10-|
||--7-----------7--|-7-----------------|---------------------|
||-----------------|-------------------|---------------------|
|
|
|
||-----------------|-------------------|---------------------|
||-----------------|-------------------|---------------------|
||-----------------|-------------------|---------------------|
||-----------------|-------------------|---------------------|
||--2-----10-9--2--|-2-----10-10-9-9-7-|-10--10-10-10--10-10-|
||--0------8-7--0--|-0------8--8-7-7-5-|--8---8--8--8---8--8-|


|--------------------||-------------------|
|--------------------||-------------------|
|--------------------||-------------------|
|-9--9-9-9-----------||-9--9-9-9-----7-9--|
|----------10-10-10--||----------10-------|
|--------------------||-------------------|
|
|
|--------------------||-------------------|
|--------------------||-------------------|
|--------------------||-------------------|
|--------------------||-------------------|
|-9--9-9-9--5--5--5--||-9--9-9-9--5--7-9--|
|-7--7-7-7--3--3--3--||-7--7-7-7--3--5-7--|


Interlude
[ Tab from: http://www.guitartabs.cc/tabs/a/amon_amarth/the_pursuit_of_vikings_tab.html ]
||----------------------------------|----------------------------------|
||----------------------------------|----------------------------------|
||------------------4-4-4-4-4-4-4-4-|-4-4-4-4-4-4-4-4-2-2-2-2-4-4-4-4--|
||--2-2-2-2-2-2-2-2-----------------|----------------------------------|
||----------------------------------|----------------------------------|
||----------------------------------|----------------------------------|
|
|
|
||----------------------------------|----------------------------------|
||----------------------------------|----------------------------------|
||----------------------------------|----------------------------------|
||----------------------------------|----------------------------------|
||--7-7-7-7-7-7-7-7-7-7-7-7-7-7-7-7-|-7-7-7-7-7-7-7-7-7-7-7-7-7-7-7-7--|
||----------------------------------|----------------------------------|

|---------------------------------|-----------------------------------|
|---------------------------------|-----------------------------------|
|-5-5-5-5-5-5-5-5-5-5-5-5-7-7-7-7-|-5-5-5-5-5-5-5-5-5-5-5-5-5-5-5-5---|
|---------------------------------|-----------------------------------|
|---------------------------------|-----------------------------------|
|---------------------------------|-----------------------------------|
|
|
|---------------------------------|-----------------------------------|
|---------------------------------|-----------------------------------|
|---------------------------------|-----------------------------------|
|---------------------------------|-----------------------------------|
|---------------------------------|-----------------------------------|
|-8-8-8-8-8-8-8-8-8-8-8-8-8-8-8-8-|-8-8-8-8-8-8-8-8-8-8-8-8-8-8-8-8---|

|---------------------------------|-----------------------------------|
|---------------------------------|-----------------------------------|
|-5-5-5-5-5-5-5-5-5-5-5-5-5-5-5-5-|-7-7-7-7-7-7-7-7-9-9-9-9-9-9-9-9---|
|---------------------------------|-----------------------------------|
|---------------------------------|-----------------------------------|
|---------------------------------|-----------------------------------|
|
|
|---------------------------------|-----------------------------------|
|---------------------------------|-----------------------------------|
|---------------------------------|-----------------------------------|
|---------------------------------|-----------------------------------|
|---------------------------------|-----------------------------------|
|-5-5-5-5-5-5-5-5-5-5-5-5-5-5-5-5-|-5-5-5-5-5-5-5-5-5-5-5-5-5-5-5-5---|

|---------------------------------|------------------------------------||
|---------------------------------|------------------------------------||
|-4-4-4-4-4-4-4-4-4-4-4-4-4-4-4-4-|-4-4-4-4-2-2-2-2--------------------||
|---------------------------------|-----------------5-5-5-5-4-4-4-4----||
|---------------------------------|------------------------------------||
|---------------------------------|------------------------------------||
|
|
|---------------------------------|------------------------------------||
|---------------------------------|------------------------------------||
|---------------------------------|------------------------------------||
|---------------------------------|------------------------------------||
|---------------------------------|------------------------------------||
|-3-3-3-3-3-3-3-3-3-3-3-3-3-3-3-3-|-5-5-5-5-5-5-5-5-7-7-7-7-7-7-7-7----||


Outro

||----------------------------------|----------------------------------|
||----------------------------------|----------------------------------|
||----------5-5-5-5-4-4-0-0-2-2-4-4-|---------5-5-5-5-4-4-0-0-0-0-0-0--|
||--2-2-2-2-------------------------|-2-2-2-2--------------------------|
||----------------------------------|----------------------------------|
||----------------------------------|----------------------------------|
|
|
|
||----------------------------------|----------------------------------|
||----------------------------------|----------------------------------|
||----------------------------------|----------------------------------|
||----------------------------------|----------------------------------|
||----------------------------------|----------------------------------|
||--0-0-0-0-0-0-0-0-0-0-0-0-0-0-0-0-|-0-0-0-0-0-0-0-0-0-0-0-0-0-0-0-0--|

|---------------------------------|------------------------------------||
|---------------------------------|------------------------------------||
|---------5-5-5-5-4-4-0-0-2-2-4-4-|---------5-5-5-5-4-4-0-0-0-0-0-0----||
|-2-2-2-2-------------------------|-2-2-2-2----------------------------||
|---------------------------------|------------------------------------||
|---------------------------------|------------------------------------||
|
|
|---------------------------------|------------------------------------||
|---------------------------------|------------------------------------||
|---------------------------------|------------------------------------||
|---------------------------------|------------------------------------||
|---------------------------------|------------------------------------||
|-8-8-8-8-8-8-8-8-8-8-8-8-8-8-8-8-|-7-7-7-7-7-7-7-7-7-7-3-3-3-3-3-3----||

|---------------------------------|-----------------------------------|
|---------------------------------|-----------------------------------|
|---------5-5-5-5-4-4-0-0-2-2-4-4-|---------5-5-5-5-4-4-0-0-0-0-0-0---|
|-2-2-2-2-------------------------|-2-2-2-2---------------------------|
|---------------------------------|-----------------------------------|
|---------------------------------|-----------------------------------|
|
|
|---------------------------------|-----------------------------------|
|---------------------------------|-----------------------------------|
|---------------------------------|-----------------------------------|
|---------------------------------|-----------------------------------|
|---------------------------------|-----------------------------------|
|-0-0-0-0-0-0-0-0-0-0-0-0-0-0-0-0-|-0-0-0-0-0-0-0-0-0-0-0-0-0-0-0-0---|

|---------------------------------|-------------------------------|
|---------------------------------|-------------------------------|
|---------5-5-5-5-4-4-0-0-2-2-4-4-|---------5-5-5-5-4--0--2--4----|
|-2-2-2-2-------------------------|-2-2-2-2-----------------------|
|---------------------------------|-------------------------------|
|---------------------------------|-------------------------------|
|
|
|---------------------------------|-------------------------------|
|---------------------------------|-------------------------------|
|---------------------------------|-------------------------------|
|---------------------------------|-------------------------------|
|---------------------------------|-------------------------------|
|-8-8-8-8-8-8-8-8-8-8-8-8-8-8-8-8-|-7-7-7-7-7-7-7-7-7--3--5--7----|
Comments