Amon Amarth - Risen From The Sea Chords & Tabs

 

Risen From The Sea Chords & Tabs

Amon Amarth Chords & Tabs

Version: 1 Type: Tab 0 ratings
1 star 2 stars 3 stars 4 stars 5 stars
comments

Risen From The Sea Tab

   
		     Amon Amarth - Risen From the Sea
                     From the Album - THE CRUSHER
                     Version 1.0 - Oct 2001

Transcribed by: TerminalX

For Questions, Comments, Newest Version, or Corrections contact
 Phil: at terminaix@aol.com



 .  - palm mute          /  - slide up to
 \  - slide down to      ~  - vibrato
 h  - hammer on          b  - bend
 p  - pull off            Suffixes for bend
                          ph - pinch harmonic
                           f - full bend    h - half bend
*  - see comment           r - release      t - tap bend
X  - percussion mute       ~ - vibrato bend
@  - slight palm mute     () - Hold note until next note

 " - Tremolo until next note
 ' - Slower Tremolo until next note

*NOTE: not complete

Tune Gtr to B

Riff A Part 1 (both guitars)

|-------------------------------------------------------------
|-------------------------------------------------------------
|-------------------------------------------------------------
|-------9"----------------------------------------------------
|---7"------10"--9"---10"p9"p7"-10"p9"p7"-10"p9"p7"-10"p9"p7"-
|-------------------------------------------------------------

Riff A Part 2 (Guitar 1)

 ---------------------------------|
 ---------------------------------|
 ---------------------------------|
 ---(10)-9h10p9---(7)-------------|
 ----------------------9--10------|
 ---------------------------------|

Riff A Part 2 (Guitar 2)

 ------------------------------------------|
 ------------------------------------------|
 ------------------------------------------|   
 ------------------------------------------|
 ---10--------10---------7--------9\10-----|
 ----8--8-8-8--8--8-8-8--5-5-5-5--7\8------|
        . . .     . . .    . . .

Riff B
[ Tab from: http://www.guitartabs.cc/tabs/a/amon_amarth/risen_from_the_sea_tab.html ]
|------------------------------------------------
|------------------------------------------------
|------------------------------------------------
|------------------------------------------------
|--2---2-2-2--2---2-2-2--------------------------
|--0---0-0-0--0---0-0-0--3-2-0-3-2-0-3-2-0-3-2-0-
       . . .      . . .

Riff B cont...

 ------------------------------------------|
 ------------------------------------------|
 ------------------------------------------|   
 ------------------------------------------|
 ---10--------10---------7--------9\10-----|
 ----8--8-8-8--8--8-8-8--5-5-5-5--7\8------|
        . . .     . . .    . . .

Riff C

|----------------------------------------------|
|----------------------------------------------|
|----------------------------------------------|
|------10"--9"--------------10"--9"------------|
|---7"---------10"--9"---------------10"--9"---|
|-----------------------10"--------------------|

leads into... (listen to CD for beat)

|------------------------------------------|
|------------------------------------------|
|------------------------------------------|
|------------------------------------------|
|-2--2"--2--2"--10"--10"--7--7"---9--10----|
|-0--0"--0--0"--8"---8"---5--5"---7--8-----|
     .      .        .       .

Then Riff C a bunch of times

Riff D

|-------------------------------------|
|-------------------------------------|
|-------------------------------------|
|-------9--7-5\7/5--------------------|
|-2222--7--5-3\5/3--2222--7--3--5-----|
|-0000--------------0000--5--1--3-----|
  ....              ....

Riff B 
Riff A

then...
Alternate between these notes...
 
|------------------------------------------------------------|
|------------------------------------------------------------|
|------------------------------------------------------------|
|------9--10-------------------------------------------------|
|------------------------------------------------------------|
|------------------------------------------------------------|

Then I'm lost...

back to Riff C

|-----------|
|-----------|
|-----------|
|-----------|
|--5--3--2--|
|--3--1--0--|
   .  .  .
Comments