Amethyst - Take Me Home Chords & Tabs

 

Take Me Home Chords & Tabs

Amethyst Chords & Tabs

Version: 1 Type: Tab 0 ratings
1 star 2 stars 3 stars 4 stars 5 stars
comments

Take Me Home Tab

   
-------------------------------------------------------------------------------
			     SONG NAME - Band Name
-------------------------------------------------------------------------------
Tabbed by: Ya Motha
Email:

Tuning:EADGBe
[ Tab from: http://www.guitartabs.cc/tabs/a/amethyst/take_me_home_tab.html ]
Theres some palm muting involved, listen to the song on purevolume.com/amethyst and dont 
off that site! buy the CD! these guys rock their un-signed. someone sign these crazy 
OCNY FO LIFE!
(OCNY= Orange County New York[Screw Cali])
e|--------------------------------------|
B|------7----10---5--5-5--7--7--10--12--|
G|------7----10---5--5-5--7--7--10--12--|
D|------7----10---5--5-5--7--7--10--12--|
A|------5----8----3--3-3--5--5--8---10--|
E|--------------------------------------|

e
| /  slide up
| \  slide down
| h  hammer-on
| p  pull-off
| ~  vibrato
| +  harmonic
| x  Mute note
===============================================================================
Comments