Americas Past - Destruction In The Wind Chords & Tabs

 

Destruction In The Wind Chords & Tabs

Americas Past Chords & Tabs

Version: 1 Type: Bass Tab 0 ratings
1 star 2 stars 3 stars 4 stars 5 stars
comments

Destruction In The Wind Bass Tab

Band:Americas Past
Song:Destruction in the wind
Tabbed by:JT

This tab is as accurate as it can be enjoy it!
Play slow
Intro 
G:-------------'----------------------------           (4X)          
D:-------------'----------------------------
A:----3----1---'----3-----1--1--------------
E:-1----3------'-1------3-------------------


G:------------------------------------------
D:------------------------------------------
A:------------------------------------------
E:-5--0--3--0--1--0--5--0-3-0-1-0-----------
[ Tab from: http://www.guitartabs.cc/tabs/a/americas_past/destruction_in_the_wind_btab.html ]
G:------------------------------------------
D:------------------------------------------
A:------------------------------------------
E:---1---3---5--0--3--0---1---0-------------

Play fast
G:------------------------------------------
D:------------------------------------------
A:------------------------------------------
E:--5-5-5-5-0-0-0-0-3-3-3-3-0-0-0-0-1-1-1-1-

Continued, after the open notes play slow again
G:------------------------------------------
D:------------------------------------------
A:------------------------------------------
E:--0-0-0-0---5---0----3-----0-----1-----0--

And thats basically it just play with the cd.
And you'll get it.
Comments