American Nightmare - Your Arsonist Chords & Tabs

 

Your Arsonist Chords & Tabs

American Nightmare Chords & Tabs

Version: 1 Type: Bass Tab

Your Arsonist Bass Tab

Song : Your Arsonist
Artist: American Nightmare
Album: Background Noise
Tabber: Cedence
ChineseCatfish7@safe-mail.net

Standard Tuning (EADG)

Intro:
-------------------------------------------------------------------|
-------------------------------------------------------------------|
-777-------------111-----------------------------------------------|
-----000-333-111------0000000000000--------------------------------|

-------------------------------------------------------------------|
-------------------------------------------------------------------|
-------------111--555555555555-------------------------------------|
-000-333-111-------------------------------------------------------|

--------------------------------------------------------------------|
--333---------------------------------------------------------------|
-------------------111------------------------------1---------------|
-------000-333-111------00000000000-----000-333-111-----------------|

------------------|
------------------|
------------5-5---|
-0~----0~---------|

Verse
-------------------------------------------------------------------|
-------------------------------------------------------------------|
------------11111111------------55555555---------------------------|
-1-0000000------------33333333-------------------------------------| X4

---
---
---
-0~
[ Tab from: http://www.guitartabs.cc/tabs/a/american_nightmare/your_arsonist_btab.html ]
Chorus
-------------------------------------------------------------------|
-------------------------------------------------------------------|
-------------111---------------------------111--555555555555-------|
-000-333-111-----000000000000--000-333-111-------------------------|

-------------------------------------------------------------------|
-------------------------------------------------------------------|
------------------111----------------------------1-----------------|
-111--000-333-111-----0000000000000--000-333-111-------------------|

Outro
-------------------------------------------------------------------|
-------------------------------------------------------------------|
-------------------------------------------------------------------|
-0-0-------0-0---------0-0------0-0----0-0-------------------------|

----
----
----
-0~-

-------------------------------------------------------------------|
-------------------------------------------------------------------|
---------------------33333333--00000000----------------------------|
-00000000--33333333------------------------------------------------| X3

-------------------------------------------------------------------|
-------------------------------------------------------------------|
---------------------3333-55-33------------------------------------|
-00000000--33333333--------------555-3--0~-------------------------|