American Hi Fi - Vertigo Chords & Tabs

 

Vertigo Chords & Tabs

American Hi Fi Chords & Tabs

Version: 5 Type: Tab 0 ratings
1 star 2 stars 3 stars 4 stars 5 stars
comments

Vertigo Tab

American Hi-Fi
Vertigo

hey this is another good song and idk if there are any tabs for this song... so here goes

tuning is in drop d (EBGDAD)

----------------------------------------------------------------------------
Guitar 1 (rhythm)

intro

E|----------------------------------------|
B|----------------------------------------|
G|--3--3-3--------------------------------|
D|--3--3-3---3--3-3---6--6-6---1--0-1--0--|
A|--1--1-1---3--3-3---6--6-6---1--0-1--0--| (x1)
D|-----------3--3-3---6--6-6---1--0-1--0--|

E|----------------------------------|
B|----------------------------------|
G|--3--3-3--------------------------|
D|--3--3-3---3--3-3---6-6-6-6---1~--|
A|--1--1-1---3--3-3---6-6-6-6---1~--| (x1)
D|-----------3--3-3---6-6-6-6---1~--|

verse

E|------------------------------------------|
B|------------------------------------------|
G|--------------------3-3---3---3-3-3-3-3---|
D|--5-0-5---1-1-0-1---3-3-0-3---3-3-3-3-3---|
A|--5-0-5---1-1-0-1---1-1-0-1---1-0-0-0-0---| (x2)
D|--5-0-5---1-1-0-1-------0-----------------|

E|-------------------|
B|-------------------|
G|-------------------|
D|--6-6-6-6-6-6-6-6--|
A|--6-6-6-6-6-6-6-6--| (x1)
D|--6-6-6-6-6-6-6-6--|

chorus

E|----------------------------------------|
B|----------------------------------------|
G|--3--3-3--------------------------------|
D|--3--3-3---3--3-3---6--6-6---1--0-1--0--|
A|--1--1-1---3--3-3---6--6-6---1--0-1--0--| (x1)
D|-----------3--3-3---6--6-6---1--0-1--0--|

E|-----------------------------|
B|-----------------------------|
G|--3--3-3---------------------|
D|--3--3-3---3--3-3---6-6-6-6--|
A|--1--1-1---3--3-3---6-6-6-6--| (x1)
D|-----------3--3-3---6-6-6-6--|

E|----------------------------------------|
B|----------------------------------------|
G|--3--3-3--------------------------------|
D|--3--3-3---3--3-3---6--6-6---1--0-1--0--|
A|--1--1-1---3--3-3---6--6-6---1--0-1--0--| (x1)
D|-----------3--3-3---6--6-6---1--0-1--0--|

E|----------------------------------|
B|----------------------------------|
G|--3--3-3--------------------------|
D|--3--3-3---3--3-3---6-6-6-6---1~--|
A|--1--1-1---3--3-3---6-6-6-6---1~--| (x1)
D|-----------3--3-3---6-6-6-6---1~--|

verse

E|------------------------------------------|
B|------------------------------------------|
G|--------------------3-3---3---3-3-3-3-3---|
D|--5-0-5---1-1-0-1---3-3-0-3---3-3-3-3-3---|
A|--5-0-5---1-1-0-1---1-1-0-1---1-0-0-0-0---| (x2)
D|--5-0-5---1-1-0-1-------0-----------------|

E|-------------------|
B|-------------------|
G|-------------------|
D|--6-6-6-6-6-6-6-6--|
A|--6-6-6-6-6-6-6-6--| (x1)
D|--6-6-6-6-6-6-6-6--|

chorus

E|----------------------------------------|
B|----------------------------------------|
G|--3--3-3--------------------------------|
D|--3--3-3---3--3-3---6--6-6---1--0-1--0--|
A|--1--1-1---3--3-3---6--6-6---1--0-1--0--| (x1)
D|-----------3--3-3---6--6-6---1--0-1--0--|

E|-----------------------------|
B|-----------------------------|
G|--3--3-3---------------------|
D|--3--3-3---3--3-3---6-6-6-6--|
A|--1--1-1---3--3-3---6-6-6-6--| (x1)
D|-----------3--3-3---6-6-6-6--|

E|----------------------------------------|
B|----------------------------------------|
G|--3--3-3--------------------------------|
D|--3--3-3---3--3-3---6--6-6---1--0-1--0--|
A|--1--1-1---3--3-3---6--6-6---1--0-1--0--| (x1)
D|-----------3--3-3---6--6-6---1--0-1--0--|

E|---------------------------------------|
B|---------------------------------------|
G|--3--3-3-------------------------------|
D|--3--3-3---3--3-3---6-6-6-6---1-1-1-1--|
A|--1--1-1---3--3-3---6-6-6-6---1-1-1-1--| (x1)
D|-----------3--3-3---6-6-6-6---1-1-1-1--|

solo kinda part (the rhythm part of it)

E|----------------------|
B|----------------------|
G|------------3-3-------|
D|--5-5--3-3--3-3--1-1--|
A|--5-5--3-3--1-1--1-1--| (x1)
D|--5-5--3-3-------1-1--| 

E|------------------------------|
B|------------------------------|
G|------------5-5-5-5-----------|
D|--5-5--3-3--5-5-5-5--1-1-1-1--|
A|--5-5--3-3--3-3-3-3--1-1-1-1--| (x1)
D|--5-5--3-3-----------1-1-1-1--| 

short break (like a second or two)

chorus

E|----------------------------------------|
B|----------------------------------------|
G|--3--3-3--------------------------------|
D|--3--3-3---3--3-3---6--6-6---1--0-1--0--|
A|--1--1-1---3--3-3---6--6-6---1--0-1--0--| (x1)
D|-----------3--3-3---6--6-6---1--0-1--0--|

E|-----------------------------|
B|-----------------------------|
G|--3--3-3---------------------|
D|--3--3-3---3--3-3---6-6-6-6--|
A|--1--1-1---3--3-3---6-6-6-6--| (x1)
D|-----------3--3-3---6-6-6-6--|

E|----------------------------------------|
B|----------------------------------------|
G|--3--3-3--------------------------------|
D|--3--3-3---3--3-3---6--6-6---1--0-1--0--|
A|--1--1-1---3--3-3---6--6-6---1--0-1--0--| (x1)
D|-----------3--3-3---6--6-6---1--0-1--0--|

E|-----------------------------|
B|-----------------------------|
G|--3--3-3---------------------|
D|--3--3-3---3--3-3---6-6-6-6--|
A|--1--1-1---3--3-3---6-6-6-6--| (x1)
D|-----------3--3-3---6-6-6-6--|

E|----------------------------------------|
B|----------------------------------------|
G|--3--3-3--------------------------------|
D|--3--3-3---3--3-3---6--6-6---1--0-1--0--|
A|--1--1-1---3--3-3---6--6-6---1--0-1--0--| (x1)
D|-----------3--3-3---6--6-6---1--0-1--0--|

E|-------------------------------|
B|-------------------------------|
G|--3--3-3-----------------------|
D|--3--3-3---3--3-3---6-6---1-1--|
A|--1--1-1---3--3-3---6-6---1-1--| (x1)
D|-----------3--3-3---6-6---1-1--|

E|----------------------------------------|
B|----------------------------------------|
G|--3--3-3--------------------------------|
D|--3--3-3---3--3-3---6--6-6---1--0-1--0--|
A|--1--1-1---3--3-3---6--6-6---1--0-1--0--| (x1)
D|-----------3--3-3---6--6-6---1--0-1--0--|

outro

E|----------------------------|
B|----------------------------|
G|--3--3-3--8-7---------------|
D|--3--3-3--8-7-3-1~---8-8\x--|
A|--1--1-1--6-5-3-1~---8-8\x--| (x1)
D|--------------3-1~---8-8\x--|
*slide down then quickly left-hand mute

---------------------------------------------------------------------------
Guitar 2 (higher notes)

intro
[ Tab from: http://www.guitartabs.cc/tabs/a/american_hi_fi/vertigo_tab_ver_5.html ]
E|----------------------------------------|
B|--3--3-3--------------------------------|
G|--3--3-3---5--5-5---5--5-5---3----3-----|
D|--3--3-3---3--3-3---6--6-6---1--0-1--0--|
A|--1--1-1---3--3-3---6--6-6---1--0-1--0--| (x1)
D|-----------3--3-3---6--6-6---1--0-1--0--|

E|----------------------------------|
B|--3--3-3--------------------------|
G|--3--3-3---5--5-5-----7-7-7---3~--|
D|--3--3-3---3--3-3---6-6-6-6---1~--|
A|--1--1-1---3--3-3---6-6-6-6---1~--| (x1)
D|-----------3--3-3---6-6-6-6---1~--|

verse

E|------------------------------------------|
B|------------------------------------------|
G|--------------------3-3---3---3-3-3-3-3---|
D|--5-0-5---1-1-0-1---3-3-0-3---3-3-3-3-3---|
A|--5-0-5---1-1-0-1---1-1-0-1---1-0-0-0-0---| (x2)
D|--5-0-5---1-1-0-1-------0-----------------|

E|-----------x-x---x-x--x-x--x--|
B|--r---t----x-x---x-x--x-x--x--|
G|--e---h----x-x---x-x--x-x--x--|
D|--s---e----x-x---x-x--x-x--x--|
A|--t---n----x-x---x-x--x-x--x--| (x1)
D|-----------x-x---x-x--x-x--x--|

chorus

E|----------------------------------------|
B|--3--3-3--------------------------------|
G|--3--3-3---5--5-5---5--5-5---3----3-----|
D|--3--3-3---3--3-3---6--6-6---1--0-1--0--|
A|--1--1-1---3--3-3---6--6-6---1--0-1--0--| (x1)
D|-----------3--3-3---6--6-6---1--0-1--0--|

E|-----------------------------|
B|--3--3-3---------------------|
G|--3--3-3---5--5-5-----7-7-7--|
D|--3--3-3---3--3-3---6-6-6-6--|
A|--1--1-1---3--3-3---6-6-6-6--| (x1)
D|-----------3--3-3---6-6-6-6--|

E|----------------------------------------|
B|--3--3-3--------------------------------|
G|--3--3-3---5--5-5---5--5-5---3----3-----|
D|--3--3-3---3--3-3---6--6-6---1--0-1--0--|
A|--1--1-1---3--3-3---6--6-6---1--0-1--0--| (x1)
D|-----------3--3-3---6--6-6---1--0-1--0--|

E|----------------------------------|
B|--3--3-3--------------------------|
G|--3--3-3---5--5-5-----7-7-7---3~--|
D|--3--3-3---3--3-3---6-6-6-6---1~--|
A|--1--1-1---3--3-3---6-6-6-6---1~--| (x1)
D|-----------3--3-3---6-6-6-6---1~--|

verse

E|------------------------------------------|
B|------------------------------------------|
G|--------------------3-3---3---3-3-3-3-3---|
D|--5-0-5---1-1-0-1---3-3-0-3---3-3-3-3-3---|
A|--5-0-5---1-1-0-1---1-1-0-1---1-0-0-0-0---| (x2)
D|--5-0-5---1-1-0-1-------0-----------------|

E|-----------x-x---x-x--x-x--x--|
B|--r---t----x-x---x-x--x-x--x--|
G|--e---h----x-x---x-x--x-x--x--|
D|--s---e----x-x---x-x--x-x--x--|
A|--t---n----x-x---x-x--x-x--x--| (x1)
D|-----------x-x---x-x--x-x--x--|

chorus

E|----------------------------------------|
B|--3--3-3--------------------------------|
G|--3--3-3---5--5-5---5--5-5---3----3-----|
D|--3--3-3---3--3-3---6--6-6---1--0-1--0--|
A|--1--1-1---3--3-3---6--6-6---1--0-1--0--| (x1)
D|-----------3--3-3---6--6-6---1--0-1--0--|

E|-----------------------------|
B|--3--3-3---------------------|
G|--3--3-3---5--5-5-----7-7-7--|
D|--3--3-3---3--3-3---6-6-6-6--|
A|--1--1-1---3--3-3---6-6-6-6--| (x1)
D|-----------3--3-3---6-6-6-6--|

E|----------------------------------------|
B|--3--3-3--------------------------------|
G|--3--3-3---5--5-5---5--5-5---3----3-----|
D|--3--3-3---3--3-3---6--6-6---1--0-1--0--|
A|--1--1-1---3--3-3---6--6-6---1--0-1--0--| (x1)
D|-----------3--3-3---6--6-6---1--0-1--0--|

E|---------------------------------------|
B|--3--3-3-------------------------------|
G|--3--3-3---5--5-5-----7-7-7---3-3-3-3--|
D|--3--3-3---3--3-3---6-6-6-6---1-1-1-1--|
A|--1--1-1---3--3-3---6-6-6-6---1-1-1-1--| (x1)
D|-----------3--3-3---6-6-6-6---1-1-1-1--|

solo kinda part

E|--------------------------------------------------|
B|--------------------------------------------------|
G|--7--7-7--7--7-7--7--7-7--8--8-8--7--7-7--5--5-5--|
D|--x--x-x--x--x-x--x--x-x--x--x-x--x--x-x--x--x-x--|
A|--5--5-5--5--5-5--5--5-5--6--6-6--5--5-5--3--3-3--| (x1)
D|--------------------------------------------------|

E|---------------------|
B|---------------------|
G|--5-5-5-5-x-8-8-8-8--|
D|--x-x-x-x-x-x-x-x-x--|
A|--3-3-3-3-x-6-6-6-6--| (x1)
D|---------------------|

chorus

E|----------------------------------------|
B|--3--3-3--------------------------------|
G|--3--3-3---5--5-5---5--5-5---3----3-----|
D|--3--3-3---3--3-3---6--6-6---1--0-1--0--|
A|--1--1-1---3--3-3---6--6-6---1--0-1--0--| (x1)
D|-----------3--3-3---6--6-6---1--0-1--0--|

E|-----------------------------|
B|--3--3-3---------------------|
G|--3--3-3---5--5-5-----7-7-7--|
D|--3--3-3---3--3-3---6-6-6-6--|
A|--1--1-1---3--3-3---6-6-6-6--| (x1)
D|-----------3--3-3---6-6-6-6--|

E|----------------------------------------|
B|--3--3-3--------------------------------|
G|--3--3-3---5--5-5---5--5-5---3----3-----|
D|--3--3-3---3--3-3---6--6-6---1--0-1--0--|
A|--1--1-1---3--3-3---6--6-6---1--0-1--0--| (x1)
D|-----------3--3-3---6--6-6---1--0-1--0--|

E|-----------------------------|
B|--3--3-3---------------------|
G|--3--3-3---5--5-5-----7-7-7--|
D|--3--3-3---3--3-3---6-6-6-6--|
A|--1--1-1---3--3-3---6-6-6-6--| (x1)
D|-----------3--3-3---6-6-6-6--|

E|----------------------------------------|
B|--3--3-3--------------------------------|
G|--3--3-3---5--5-5---5--5-5---3----3-----|
D|--3--3-3---3--3-3---6--6-6---1--0-1--0--|
A|--1--1-1---3--3-3---6--6-6---1--0-1--0--| (x1)
D|-----------3--3-3---6--6-6---1--0-1--0--|

E|-------------------------------|
B|--3--3-3-----------------------|
G|--3--3-3---5--5-5---5-5---3-3--|
D|--3--3-3---3--3-3---6-6---1-1--|
A|--1--1-1---3--3-3---6-6---1-1--| (x1)
D|-----------3--3-3---6-6---1-1--|

E|----------------------------------------|
B|--3--3-3--------------------------------|
G|--3--3-3---5--5-5---5--5-5---3----3-----|
D|--3--3-3---3--3-3---6--6-6---1--0-1--0--|
A|--1--1-1---3--3-3---6--6-6---1--0-1--0--| (x1)
D|-----------3--3-3---6--6-6---1--0-1--0--|

outro

E|----------------------------|
B|--3--3-3--------------------|
G|--3--3-3--8-7---------------|
D|--3--3-3--8-7-3-1~---8-8\x--|
A|--1--1-1--6-5-3-1~---8-8\x--| (x1)
D|--------------3-1~---8-8\x--|
*slide down then quickly left-hand mute


ok there you... everything is right in order so just follow the tab the whole way down.
if you have any comments or questions you can e-mail me at killinginthename247@yahoo.com.
enjoy!

WE ARE THE SUMS!
Comments