American Hi-fi - The Breakup Song Chords & Tabs

 

The Breakup Song Chords & Tabs

American Hi-fi Chords & Tabs

Version: 2 Type: Tab 0 ratings
1 star 2 stars 3 stars 4 stars 5 stars
comments

The Breakup Song Tab

The Breakup Song
American Hi-Fi
Tabbed by: liam gallagher94
Questions or Comments?
Email: wouldnt u like to know mate ;)

-Great song, easy too
-I know that I'm missing Guitar 2 that has the intro

Drop D Tuning

Intro
e|----------|
B|----------|
G|----------|
D|-3--5--1--|  x4
A|-3--5--1--|
D|-3--5--1--|

Verse
e|--------------------|
B|--------------------|
G|-----------55-------|
D|-88---33---55---11--|  x3, Then palm mute x2
A|-88---33---33---11--|
D|-88---33--------11--|
[ Tab from: http://www.guitartabs.cc/tabs/a/american_hi_fi/the_breakup_song_tab_ver_2.html ]
Chorus
e|------------------------|
B|------------------------|
G|-----------5555---------|
D|-88---33---5555---1111--|  x2
A|-88---33---3333---1111--|
D|-88---33----------1111--|

e|---------------------------|
B|---------------------------|
G|---------------5555--------|
D|-8888---3333---5555--1111--|  x2
A|-8888---3333---3333--1111--|
D|-8888---3333---------1111--|

Bridge
During the solo, Guitar 1 plays this
e|---------------------------|
B|---------------------------|
G|---------------5555--------|
D|-8888---3333---5555--1111--|  x2
A|-8888---3333---3333--1111--|
D|-8888---3333---------1111--|

Outro
End with this
e|---------------------|
B|---------------------|
G|---------------------|
D|-88---88---88---888--|
A|-88---88---88---888--|
D|-88---88---88---888--|

Order:
Intro
Verse
Chorus
Verse
Chorus
Bridge
Chorus x2
Outro
Comments