American Hi Fi - The Art Of Losing Chords & Tabs

 

The Art Of Losing Chords & Tabs

American Hi Fi Chords & Tabs

Version: 5 Type: Tab 0 ratings
1 star 2 stars 3 stars 4 stars 5 stars
comments

The Art Of Losing Tab

American Hi-Fi
The Art of Losing

this is a pretty sick song... and even though the tabs here are good they are missing a
lot of the high notes that are important but hard to hear... so here you go

drop d tuning (EBGDAD)

---------------------------------------------------------------------------
Guitar 1 (rhythm)

intro

E|---------------|
B|---------------|
G|---------------|
D|--0-0-0--2--2--|
A|--0-0-0--2--2--| (x5)
D|--0-0-0--2--2--|

verse

E|---------------|
B|---------------|
G|---------------|
D|--0-0-0--2--2--|
A|--0-0-0--2--2--| (x3)
D|--0-0-0--2--2--|

E|-------------------------------------|
B|-------------------------------------|
G|--7-7-7-7-7-7-7-7--5-5-5-5--7-7-7-7--|
D|--7-7-7-7-7-7-7-7--5-5-5-5--7-7-7-7--|
A|--5-5-5-5-5-5-5-5--3-3-3-3--5-5-5-5--| (x1)
D|-------------------------------------|

chorus

E|--------------------------------------|
B|--------------------------------------|
G|-----------5-5-5-5-----------7-7-7-7--|
D|--2-2-2-2--5-5-5-5--5-5-5-5--7-7-7-7--|
A|--2-2-2-2--3-3-3-3--5-5-5-5--5-5-5-5--| (x3)
D|--2-2-2-2-----------5-5-5-5-----------|

E|-----------------------------------|
B|-----------------------------------|
G|-------------------5-5-5-5--7-7-7--|
D|--3-3-3-3-3-3-3-3--5-5-5-5--7-7-7--|
A|--3-3-3-3-3-3-3-3--3-3-3-3--5-5-5--| (x1)
D|--3-3-3-3-3-3-3-3------------------|

post-chorus (transition is fast)

E|---------------|
B|---------------|
G|---------------|
D|--0-0-0--2--2--|
A|--0-0-0--2--2--| (x3)
D|--0-0-0--2--2--|


chorus

E|--------------------------------------|
B|--------------------------------------|
G|-----------5-5-5-5-----------7-7-7-7--|
D|--2-2-2-2--5-5-5-5--5-5-5-5--7-7-7-7--|
A|--2-2-2-2--3-3-3-3--5-5-5-5--5-5-5-5--| (x3)
D|--2-2-2-2-----------5-5-5-5-----------|

E|-----------------------------------|
B|-----------------------------------|
G|-------------------5-5-5-5--7-7-7--|
D|--3-3-3-3-3-3-3-3--5-5-5-5--7-7-7--|
A|--3-3-3-3-3-3-3-3--3-3-3-3--5-5-5--| (x1)
D|--3-3-3-3-3-3-3-3------------------|

post-chorus (transition is fast)

E|---------------|
B|---------------|
G|---------------|
D|--0-0-0--2--2--|
A|--0-0-0--2--2--| (x3)
D|--0-0-0--2--2--|

verse

E|---------------|
B|---------------|
G|---------------|
D|--0-0-0--2--2--|
A|--0-0-0--2--2--| (x3)
D|--0-0-0--2--2--|

E|-------------------------------------|
B|-------------------------------------|
G|--7-7-7-7-7-7-7-7--5-5-5-5--7-7-7-7--|
D|--7-7-7-7-7-7-7-7--5-5-5-5--7-7-7-7--|
A|--5-5-5-5-5-5-5-5--3-3-3-3--5-5-5-5--| (x1)
D|-------------------------------------|

chorus

E|--------------------------------------|
B|--------------------------------------|
G|-----------5-5-5-5-----------7-7-7-7--|
D|--2-2-2-2--5-5-5-5--5-5-5-5--7-7-7-7--|
A|--2-2-2-2--3-3-3-3--5-5-5-5--5-5-5-5--| (x3)
D|--2-2-2-2-----------5-5-5-5-----------|

E|-------------------------------------|
B|-------------------------------------|
G|-------------------5-5-5-5--7-7-7-7--|
D|--3-3-3-3-3-3-3-3--5-5-5-5--7-7-7-7--|
A|--3-3-3-3-3-3-3-3--3-3-3-3--5-5-5-5--| (x1)
D|--3-3-3-3-3-3-3-3--------------------|

bridge

E|--------------------------------|
B|--------------------------------|
G|--------------------------------|
D|--------10--------------12-14---|
A|----10--------------12----------| (x1)
D|--10--10-----(10)/12--12--------|

E|--------------------------------|
B|--------------------------------|
G|--------------------------------|
D|--------10------------10----10--|
A|----10--------------12--12--10--| (x1)
D|--10--10-----(10)/12--------10--|

post-bridge (haha don't know the word for this part)

E|---------------|
B|---------------|
G|---------------|
D|--0-0-0--2--2--|
A|--0-0-0--2--2--| (x4) (second guitar has higher notes/slides)
D|--0-0-0--2--2--|

E|--------------------------------|
B|--------------------------------|
G|--5-5-5-5-5-5--777777-777777-7--|
D|--5-5-5-5-5-5--777777-777777-7--|
A|--3-3-3-3-3-3--555555-555555-5--| (x1)
D|--------------------------------|

chorus

E|--------------------------------------|
B|--------------------------------------|
G|-----------5-5-5-5-----------7-7-7-7--|
D|--2-2-2-2--5-5-5-5--5-5-5-5--7-7-7-7--|
A|--2-2-2-2--3-3-3-3--5-5-5-5--5-5-5-5--| (x3)
D|--2-2-2-2-----------5-5-5-5-----------|

E|-------------------------------------|
B|-------------------------------------|
G|-------------------5-5-5-5--7-7-7-7--|
D|--3-3-3-3-3-3-3-3--5-5-5-5--7-7-7-7--|
A|--3-3-3-3-3-3-3-3--3-3-3-3--5-5-5-5--| (x1)
D|--3-3-3-3-3-3-3-3--------------------|

outro

E|--------------------------------------|
B|--------------------------------------|
G|-----------7-7-7-7--5-5-5-5--7-7-7-7--|
D|--5-5-5-5--7-7-7-7--5-5-5-5--7-7-7-7--|
A|--5-5-5-5--5-5-5-5--3-3-3-3--5-5-5-5--| (x1)
D|--5-5-5-5-----------------------------|

E|--------------------------------------|
B|--------------------------------------|
G|--------------------5-5-5-5--7-7-7-7--|
D|--5-5-5-5---4~-5~---5-5-5-5--7-7-7-7--|
A|--5-5-5-5-----------3-3-3-3--5-5-5-5--| (x1)
D|--5-5-5-5-----------------------------|

E|--------------------------------|
B|--------------------------------|
G|-----------------------7-7-7-7--|
D|--5-5-5-5---4~-5~\2~---7-7-7-7--|
A|--5-5-5-5--------------5-5-5-5--| (x1)
D|--5-5-5-5-----------------------|

E|---------------------------------------------|
B|---------------------------------------------|
G|--------------------5-5-5-5--7-7-7-7--7-7-7--|
D|--5-5-5-5---4~-5~---5-5-5-5--7-7-7-7--7-7-7--|
A|--5-5-5-5-----------3-3-3-3--5-5-5-5--5-5-5--| (x1)
D|--5-5-5-5------------------------------------|

end on 

E|---------------|
B|---------------|
G|---------------|
D|--0-0-0--2--2--|
A|--0-0-0--2--2--| (x1)
D|--0-0-0--2--2--|

---------------------------------------------------------------------------
Guitar 2 (high notes)

intro 
[ Tab from: http://www.guitartabs.cc/tabs/a/american_hi_fi/the_art_of_losing_tab_ver_5.html ]
E|---------------|
B|---------------|
G|--7-7-7--9--9--|
D|--7-7-7--9--9--|
A|--5-5-5--7--7--| (x5)
D|---------------|

verse

E|---------------|
B|---------------|
G|--7-7-7--9--9--|
D|--7-7-7--9--9--|
A|--5-5-5--7--7--| (x1)
D|---------------|

E|------------------------------------|
B|------------8--8--7--7--5--5--7--7--|
G|--7-7-7--9--9--9--7--7--5--5--7--7--|
D|--7-7-7--9--------------------------|
A|--5-5-5--7--------------------------| (x1)
D|------------------------------------|

E|-------------------------------------------------------|
B|--8--8--7--7--5--5--7-7-7-7-7-7-7-7--5-5-5-5--7-7-7-7--|
G|--9--9--7--7--5--5--7-7-7-7-7-7-7-7--5-5-5-5--7-7-7-7--|
D|--------------------7-7-7-7-7-7-7-7--5-5-5-5--7-7-7-7--|
A|--------------------5-5-5-5-5-5-5-5--3-3-3-3--5-5-5-5--| (x1)
D|-------------------------------------------------------|

chorus 

E|------10-12---------------------------------------------|
B|-----------------10-8-7---------------------------------|
G|--7-9-------7-9---------7-----7-9---7-9---7-9-----------|
D|-----------------------------------------------7-5-4----|
A|-----------------------------------------------------5--| (x1)
D|--------------------------------------------------------|

E|---------------------------------------------|
B|-----------------------------------10-8-7----|
G|----9---9-----7---7-----12----12----------7--|
D|----9---9-----7---7-----12----12-------------|
A|--7---7----5----5----10----10----------------| (x1)
D|---------------------------------------------|

E|----------------------------------------------|
B|----------------------------5-5-5-5--7-7-7-7--|
G|----10---10------10---10----5-5-5-5--7-7-7-7--|
D|----10---10------10---10----5-5-5-5--7-7-7-7--|
A|--8----8------8-----8-------3-3-3-3--5-5-5-5--| (x1)
D|----------------------------------------------|

no post-chorus...

then verse

E|---------------|
B|---------------|
G|--7-7-7--9--9--|
D|--7-7-7--9--9--|
A|--5-5-5--7--7--| (x1)
D|---------------|

E|------------------------------------|
B|------------8--8--7--7--5--5--7--7--|
G|--7-7-7--9--9--9--7--7--5--5--7--7--|
D|--7-7-7--9--------------------------|
A|--5-5-5--7--------------------------| (x1)
D|------------------------------------|

E|-------------------------------------------------------|
B|--8--8--7--7--5--5--7-7-7-7-7-7-7-7--5-5-5-5--7-7-7-7--|
G|--9--9--7--7--5--5--7-7-7-7-7-7-7-7--5-5-5-5--7-7-7-7--|
D|--------------------7-7-7-7-7-7-7-7--5-5-5-5--7-7-7-7--|
A|--------------------5-5-5-5-5-5-5-5--3-3-3-3--5-5-5-5--| (x1)
D|-------------------------------------------------------|

chorus

E|----------------------------|
B|----------------------------|
G|--7-9---7-9---7-9-----------|
D|-------------------7-5-4----|
A|-------------------------5--| (x2)
D|----------------------------|

E|---------------------------------------------|
B|-----------------------------------10-8-7----|
G|----9---9-----7---7-----12----12----------7--|
D|----9---9-----7---7-----12----12-------------|
A|--7---7----5----5----10----10----------------| (x1)
D|---------------------------------------------|

E|----------------------------------------------|
B|----------------------------5-5-5-5--7-7-7-7--|
G|----10---10------10---10----5-5-5-5--7-7-7-7--|
D|----10---10------10---10----5-5-5-5--7-7-7-7--|
A|--8----8------8-----8-------3-3-3-3--5-5-5-5--| (x1)
D|----------------------------------------------|

bridge (same as rhythm guitar)

E|--------------------------------|
B|--------------------------------|
G|--------------------------------|
D|--------10--------------12-14---|
A|----10--------------12----------| (x1)
D|--10--10-----(10)/12--12--------|

E|--------------------------------|
B|--------------------------------|
G|--------------------------------|
D|--------10------------10----10--|
A|----10--------------12--12--10--| (x1)
D|--10--10-----(10)/12--------10--|

post-bridge (haha don't know the word for this part)

E|-----------------|
B|-----------------|
G|--77-77/9-9-9\0--|
D|--xx-xx/x-x-x\0--|
A|--55-55/7-7-7\0--| (x3)
D|-----------------|

E|--------------------------|
B|--------------------------|
G|--77-7/12-12-12-12-12-12--|
D|--xx-x/-x--x--x--x--x--x--|
A|--55-5/10-10-10-10-10-10--| (x1)
D|--------------------------|

E|----------------------------------------------------|
B|----------------------------------------------------|
G|--14-14-14-14-14-14---14-14-14-14-14-14-14-14b(16)--| start to bend as
D|---x--x--x--x--x--x----x--x--x--x--x--x--x--x---x---| you strum the 
A|--12-12-12-12-12-12---12-12-12-12-12-12-12-12b(14)--| last set of notes
D|----------------------------------------------------| 

chorus

E|----------------------------|
B|----------------------------|
G|--7-9---7-9---7-9-----------|
D|-------------------7-5-4----|
A|-------------------------5--| (x2)
D|----------------------------|

E|---------------------------------------------|
B|-----------------------------------10-8-7----|
G|----9---9-----7---7-----12----12----------7--|
D|----9---9-----7---7-----12----12-------------|
A|--7---7----5----5----10----10----------------| (x1)
D|---------------------------------------------|

E|----------------------------------------------|
B|----------------------------5-5-5-5--7-7-7-7--|
G|----10---10------10---10----5-5-5-5--7-7-7-7--|
D|----10---10------10---10----5-5-5-5--7-7-7-7--|
A|--8----8------8-----8-------3-3-3-3--5-5-5-5--| (x1)
D|----------------------------------------------|

then outro

E|----10-------10--7----7--|
B|--8----10-8--------10----|
G|-------------------------|
D|-------------------------|
A|-------------------------| (x4)
D|-------------------------|

end on 

E|---------------|
B|---------------|
G|--7-7-7--9--9--|
D|--7-7-7--9--9--|
A|--5-5-5--7--7--| (x1)
D|---------------|


ok there you go... i think this is right and this also has those high notes for the
second guitar. if you have any comments or questions you can e-mail me at killinginthename247@yahoo.com

WE ARE THE SUMS!
Comments