American Hi Fi - The Art Of Losing Chords & Tabs

 

The Art Of Losing Chords & Tabs

American Hi Fi Chords & Tabs

Version: 1 Type: Tab 0 ratings
1 star 2 stars 3 stars 4 stars 5 stars
comments

The Art Of Losing Tab

Intro/Verse guitar 1
e|---------------------------------------------------------------------------|
B|---------------------------------------------------------------------------|
G|-7-7/9-9-------------------------------------------------------------------|
D|-7-7/9-9-------------------------------------------------------------------|
A|-5-5/7-7-------------------------------------------------------------------|
E|---------------------------------------------------------------------------|
Guitar 2
e|---------------------------------------------------------------------------|
B|---------------------------------------------------------------------------|
G|-9-9--7-7-5-5--9-9--------7--7--7--5--5--7-7-------------------------------|
D|-9-9--7-7-5-5--9-9--x2----7--7--7--5--5--7-7-------------------------------|
A|-7-7--5-5-3-3--7-7--------5--5--7--3--3--5-5-------------------------------|
E|---------------------------------------------------------------------------|

Pre-chorus
e|---------------------------------------------------------------------------|
B|---------------------------------------------------------------------------|
G|---------------------------------------------------------------------------|
D|-7-7-7-7-7-7-7-7--10-10-10-10--12-12-12-12---------------------------------|
A|-7-7-7-7-7-7-7-7--10-10-10-10--12-12-12-12---------------------------------|
E|-5-5-5-5-5-5-5-5--8--8--8--8---8--8--8--8----------------------------------|
[ Tab from: http://www.guitartabs.cc/tabs/a/american_hi_fi/the_art_of_losing_tab.html ]
Chorus
e|---------------------------------------------------------------------------|
B|---------------------------------------------------------------------------|
G|-----5-5-----7-7-------5-7-------------------------------------------------|
D|-2-2-5-5-5-5-7-7--x3-5-5-7-------------------------------------------------|
A|-2-2-3-3-5-5-5-5-----5-3-5-------------------------------------------------|
E|-0-0-----3-3---------3-----------------------------------------------------|

Bridge                       
|---------------------------------
|---------------------------------
|---------------------------------
|----------10-------------12---14-
|----10-------------12------------
|-10----10-------12----12---------

|--------------------------------
|--------------------------------
|--------------------------------
|----------10----------10-----12-
|----10-------------12----12--12-
|-10----10------/12-----------12-

intro 

bridge 2 (pre-chorus 2)
|---------------------------------------------------------
|---------------------------------------------------------
|----------------------7-7-7-7-7-7-7-7-7-7-7-7-7-7--------
|-10-10-10-10-10-10-10-7-7-7-7-7-7-7-7-7-7-7-7-7-7--------
|-10-10-10-10-10-10-10-5-5-5-5-5-5-5-5-5-5-5-5-5-5--------
|-8--8--8--8--8--8--8-------------------------------------

Chorus 

 Were the kids, were the kids, were the kids in america...
e|---------------------------------------------------------------------------|
B|---------------------------------------------------------------------------|
G|----7-5-7------------------------------------------------------------------|
D|-5--7-5-7------------------------------------------------------------------|
A|-5--5-3-5------------------------------------------------------------------|
E|-3-------------------------------------------------------------------------|
Comments