American Hi Fi - The Art Of Losing Chords & Tabs

 

The Art Of Losing Chords & Tabs

American Hi Fi Chords & Tabs

Version: 2 Type: Bass Tab 0 ratings
1 star 2 stars 3 stars 4 stars 5 stars
comments

The Art Of Losing Bass Tab

Artist:American Hi-Fi 
Title :The Art of Losing
Tabbed:Ibanez2k2

Intro
G----------------------------------------------------
D----------------------------------------------------
A----------------------------------------------------
D--0-0-0-2-2----0-0-0-2-2----0-0-0-2-2----0-0-0-2-2--


Verse 
G----------------------------------------------------
D----------------------------------------------------
A--7-7-7-7-----5-5-5-5-----3-3-3-3--5--3-2-----------
D-----------9-----------7-------------------3-2-0----

G----------------------------------------------------
D------------------------------------/7-5-4-0--------
A--7-7-7-7-----5-5-5-5-----3-3-3-3-------------------
D-----------9-----------7----------------------------

G----------------------------------------------------
D--------4-5-------4-5------4-5-7-5-4----------------
A--7-7--------5-5-------3-3------------5-------------
D----------------------------------------------------
[ Tab from: http://www.guitartabs.cc/tabs/a/american_hi_fi/the_art_of_losing_btab_ver_2.html ]
G----------------------------------------------------
D----------------------------------------------------
A--7-7-7-7-----5-5-5-5-----3-3-3-3-------------------
D----------------------------------------------------

Bridge
G----------------------------------------------------
D----------------------------------------------------
A--5-5-5-5-5-5-5-5----3---3-----5-5-5-5--------------
D-----------------------5---5------------------------


Chorus
G----------------------------------------------------
D----------------------------------------------------
A------------3-3-3-3-------------5-5-5-5-------------
D--2-2-2-2-------------5-5-5-5-----------------------


Post Chorus
G----------------------------------------------------
D----------------------------------------------------
A--------------------3-3-3-3----5-5-5-5--------------
D--3-3-3-3-3-3-3-3-----------------------------------


Outro
G----------------------------------------------------
D----------------------------------------------------
A--------------------5-5-5-5----3-3-3-3--5-5-5-5-----
D--5-5-5-5-5-5-5-5-----------------------------------
Comments