American Hi Fi - The Art Of Losing Chords & Tabs

 

The Art Of Losing Chords & Tabs

American Hi Fi Chords & Tabs

Version: 1 Type: Bass Tab 0 ratings
1 star 2 stars 3 stars 4 stars 5 stars
comments

The Art Of Losing Bass Tab

Intro

1------------| 
2------------|
3---55-77----|
4------------| 

Verse
1---------------------------------------
2---------------------------------------
3--7-7-77-77--5-5-55-55--3-3-33-33-0-2--   X2
4-------------------------------------32

1---------------------------|
2-----45----45----45-7-5-4--|
3--77----55----33----------5|  X2
4---------------------------| 
[ Tab from: http://www.guitartabs.cc/tabs/a/american_hi_fi/the_art_of_losing_btab.html ]
Pre-chorus
1-------------------------------|
2-------------------------------|
3-55-55-55--33-3-33--55-5-555555|
4-------------------------------|
Chorus
1--------------------------------------|
2--------------------------------------|
3-------------33-33-33----------55-55-5|
4-00-00-000-0----------33-33-33--------| X3                

Intro
Verse
Chorus
Guitar solo (No bass)
Intro

2-3-4 bit
1-----------------------|
2-----------------------|
3-3-3-3-3-5-5-555-555555|
4-----------------------|

Chorus

Chorus Variation (were the kids)
1----------------------------------------|
2----------------------------------------|
3-7-7-77-77-----------3-3-33-33----------|
4-----------3-3-33-33-----------5-5-55-55|X6ish
Intro again

Thats it
Comments