American Hi Fi - Surround Chords & Tabs

 

Surround Chords & Tabs

American Hi Fi Chords & Tabs

Version: 5 Type: Tab 0 ratings
1 star 2 stars 3 stars 4 stars 5 stars
comments

Surround Tab

   
American Hi-Fi
Surround
Tabbed by Dave Costello (Cozuk2000@yahoo.com)
Tuning: Low to high: C#  G#   C#  F#   A#  D#
This song rules!

Intro w/feedback

-----------------0-----------------|
------------10-------------10------|
-------11-----------9/11--------11-|	X3
---0-------------------------------|
-----------------------------------|
-----------------------------------|


----------------------------------|
----------------------------------|
----------------------------------|
----------------------------------|	X8
---0---0--------7--7---5--5-------|
---0---0--------7--7---5--5-------|


The lead over the last 4 repetitions of this riff is:

----------------------------------14--14---14----14--|
------15-----15-----15----15------17b?17b--17b---17b-|
------17b--- 17b---17b---17b-------------------------|
-----------------------------------------------------|
-----------------------------------------------------|
-----------------------------------------------------|

Verse:

--------------------------------------------------------|
--------------------------------------------------------|
--------------------------------------------------------|
--------------------------------------------------------|
--0--0-------0--0-------0--0-----0--0----7--7----5--5---|
--0--0-------0--0-------0--0-----0--0----7--7----5--5---|


I need a better way, to get my head straight
It?s not like anybody would know
I?ve got a silver cloud, high above me
Running circles around and around me

Chorus:

-----------------------------------------|
-----------------------------------------|
-----------------------------------------|		X2
---7-----------------3---------5---------|
---5-----7-----5-----1----3----3----5----|
---0-----7-----5----------3---------5----|
Turn it up again we?re going nowhere
And let the sound surround everyone
I play to static with the noise in my head
And let the sound surround everyone

Verse:

Go off the deep end, I?ve got nothing to prove
And I?ve got nothing better to do
I?m so happy, so fucking happy now
That I?m far from the glare of the city

Chorus:

Turn it up again we?re going nowhere
And let the sound surround everyone
I play to static with the noise in my head
And let the sound surround everyone

Link:

----------------------------------------------------------------------------|
----------------------------------------------------------------------------|
----------------------------------------------------------------------------|
----------------------------------------------------------------------------|
-0--0----------------0--0-----------------0--0---------------------0--------|
-0--0----------------0--0-----------------0--0---------------------0--------|
        Better Way	        Better Way	         Better Way	     I need a better way!


Solo 1:
Guitar 1:

-------------------------------|
-------------------------------|
-------------------------------|
-------------------------------|	X8
---0---0--------7--7---5--5----|
---0---0--------7--7---5--5----|

Guitar 2:

--------------------------------------------------------|
--------------------------------------------------------|
-----9?9br--7-----7--9?9b--7-----9br--7-----7--9---9b---|
---------------9-------------------------9--------------|X2
--------------------------------------------------------|
--------------------------------------------------------|




Verse
[ Tab from: http://www.guitartabs.cc/tabs/a/american_hi_fi/surround_tab_ver_5.html ]
--------------------------------------------------------------|
--------------------------------------------------------------|
--------------------------------------------------------------|
--7-7-------------7-7------7-7---------------7-7--------------|
--5-5-------------5-5------5-5---------------5-5--------------|
--0-0-------------0-0------0-0---------------0-0--------------|

     I heard the wide noise and waves of Radiation

------------------------------------------------------|
------------------------------------------------------|
------------------------------------------------------|
------------------------------------------------------|
-7---7--------------------------------5---------------|
-7---7--------------------------------5---------------|

         They?re falling from the sky


Chorus:

Turn it up again we?re going nowhere
And let the sound surround everyone
Play the static with the noise in my head
And let the sound surround everyone

Outro: (Chorus Chords)

Turn it up again we?re going nowhere

-------------------------------------------------------------------|
-------------------------------------------------------------------|
-----9b r------------9---7-----------------------------------------|
-----------------10----------9-------------------------------------|
---------------------------------10--9-----------------------------|
-------------------------------------------------------------------|

Play to static with noise in my head

And let the sound surround      Turn it up again

-----------------------------------------------------------|
-----------------------------------------------------------|
-----------------------------------------------------------|
--3--------------------------------------3-----------------|
--1---3----------------------------------1----3------------|
------3---------------------------------------3------------|
 And let the sound surround us
-------------------------------------------------------|
-------------------------------------------------------|
-------------------------------------------------------|
--3--------------------------------7-------------------|
--1---3----------------------------5------ ------------|
------3----------------------------0-------------------|

Outro Solo

Bass Solo- same tuning as guitar

--------------------------------------------|
--------------------------------------------|
--------------------------------------------|
---0---------3-3------5--5------------------|    Repeat


Rhythm guitar

---------------------------------------------------------------|
---------------------------------------------------------------|
---------------------------------------------------------------|
---------------------------------------------------------------|
---0-------3--3------5--5--------------------------------------|
---0-------3--3------5--5--------------------------------------|

Lead Guitar:

---------------------------------|
------------6---6------8---------|
------------8b- 8b----10b--------|    x4
---------------------------------|
---------------------------------|
---------------------------------|

------------------------------|
-----13---13-----15-----------|
-----15b--15b---17b-----------|
------------------------------|    x4
------------------------------|
------------------------------|

End Chord
--------------------------------------------------------|
--------------------------------------------------------|
----------7----7\---------------------------------------|
----------7----7\---------------------------------------|
----------5----5\---------------------------------------|
--------------------------------------------------------|
Comments