American Hi Fi - Surround Chords & Tabs

 

Surround Chords & Tabs

American Hi Fi Chords & Tabs

Version: 4 Type: Tab 0 ratings
1 star 2 stars 3 stars 4 stars 5 stars
comments

Surround Tab

   
Artist: American Hi-Fi
Song: Surround
Tabbed By: Rudy Cortez(nemesis335142)
(11/21/01)
	I decided to tab this song because it's the song I love
the most from American Hi-Fi. I found this other tab that didn't
sound right for the solo and missed a few things. My tab is almost
perfect. If you have suggestions to my Tab. E-Mail me At:
nemesis335142.tx@netzero.net
(?)= suggested note
( = bend close to you
) = bend away from you
H = use wammy bar to raise note
D = use wammy bar to bend down note
B = bend up and down slowly
/ = slide to

Intro: with distortion and chorus
E|-----------------|
B|-----------------|
G|-----6---6---6---|
D|---6---6---6---6-|
A|-4---------------|
E|-----------------|
 repeat X3

Chorus: distortion
E|------------------------------------|
B|------------------------------------|
G|-6-6-6-6----------------------------|
D|-6-6-6-6--6-6-6-6--4-4-4-4--6-6-6-6-|
A|-4-4-4-4--6-6-6-6--4-4-4-4--6-6-6-6-|
E|----------4-4-4-4--2-2-2-2--4-4-4-4-|
 repeat X2 "turn it up again where going your way"

after this then: distortion
E|--------------------------------------------------------|
B|--------------------------------------------------------|
G|-8()()-8()()--9()()-9()()--10()()-10()()--11()()-11()()-|
D|--------------------------------------------------------|
A|--------------------------------------------------------|
E|--------------------------------------------------------|

the beat: distortion
E|-------------------------------------|
B|-------------------------------------|
G|---------------------------6-6-6/----|
D|-6-6----6-6----6-6----6-6--6-6-6/6-6-|
A|-6-6----6-6----6-6----6-6--4-4-4/6-6-|
E|-4-4----4-4----4-4----4-4--------4-4-|
 repeat X2 "a better way, a better way"

Chorus: distortion
E|------------------------------------|
B|------------------------------------|
G|-6-6-6-6----------------------------|
D|-6-6-6-6--6-6-6-6--4-4-4-4--6-6-6-6-|
A|-4-4-4-4--6-6-6-6--4-4-4-4--6-6-6-6-|
E|----------4-4-4-4--2-2-2-2--4-4-4-4-|
 repeat X2 "turn it up again where going your way"
[ Tab from: http://www.guitartabs.cc/tabs/a/american_hi_fi/surround_tab_ver_4.html ]
the beat: distortion
E|-------------------------------------|
B|-------------------------------------|
G|---------------------------6-6-6/----|
D|-6-6----6-6----6-6----6-6--6-6-6/6-6-|
A|-6-6----6-6----6-6----6-6--4-4-4/6-6-|
E|-4-4----4-4----4-4----4-4--------4-4-|
 repeat X2 "a better way, a better way"

Chorus: distortion
E|------------------------------------|
B|------------------------------------|
G|-6-6-6-6----------------------------|
D|-6-6-6-6--6-6-6-6--4-4-4-4--6-6-6-6-|
A|-4-4-4-4--6-6-6-6--4-4-4-4--6-6-6-6-|
E|----------4-4-4-4--2-2-2-2--4-4-4-4-|
 repeat X2 "turn it up again where going your way"

the stop: distortion
E|--------------------------|
B|--------------------------|
G|--------------------------|
D|-6-6----6-6----6-6----6-6-|
A|-6-6----6-6----6-6----6-6-|
E|-4-4----4-4----4-4----4-4-|
   "a better way"

Solo: distortion and chorus
E|---------------------------------------|
B|---------------------------------------|
G|-8H-(6-8-(8)-8)--------8H-(6-8-(8)-9)B-|
D|----------------9)B--------------------|
A|---------------------------------------|
E|---------------------------------------|
 repeat X2

the stop: distortion
E|--------------------------|
B|--------------------------|
G|--------------------------|
D|-6-6----6-6----6-6----6-6-|
A|-6-6----6-6----6-6----6-6-|
E|-4-4----4-4----4-4----4-4-|
 "I heard the white noise"

Chorus: distortion
E|------------------------------------|
B|------------------------------------|
G|-6-6-6-6----------------------------|
D|-6-6-6-6--6-6-6-6--4-4-4-4--6-6-6-6-|
A|-4-4-4-4--6-6-6-6--4-4-4-4--6-6-6-6-|
E|----------4-4-4-4--2-2-2-2--4-4-4-4-|
 repeat X2 "turn it up again where going your way"

2nd Solo: distortion and chorus
E|----------------------------------|
B|----------------------------------|
G|-8H-(6-8-(8)-8)---8H-6)B--8/9BB/6-|
D|---------------9)B----------------|
B|----------------------------------|
E|----------------------------------|

Ending: distortion
E|--------------|
B|--------------|
G|---6-8----6-8-|
D|-6-6-8--6-6-8-|
B|-6-4-6--6-4-6-|
E|-4------4-----|
 repeat X2 then

E|----------------|
B|----------------|
G|---6-7)----6-7)-|
D|-6-6-0---6-6-0--|
B|-6-4-----6-4----|
E|-4-------4------|
 repeat X2
Last: distorton
E|-------|
B|-------|
G|-6-6BD-|
D|-6-6BD-|
B|-4-4BD-|
E|-------|
Comments