American Hi-fi - Rise Chords & Tabs

 

Rise Chords & Tabs

American Hi-fi Chords & Tabs

Version: 1 Type: Tab 0 ratings
1 star 2 stars 3 stars 4 stars 5 stars
comments

Rise Tab

   
Band - American Hi-fi
Song - Rise
Album - The Art Of Losing
Tuning - Drop D

Easy Song to learn but sounds Kick Ass

Intro - Guitar 1

e:---------------------------------------------|
b:---------------------------------------------|
g:---------------------------------5-5-5-5-5-5-| Repeat 4 times
d:-3hm-5-5-5-5-5-3hm-5-5-5-5-5-1-1-5-5-5-5-5-5-|
a:-3hm-5-5-5-5-5-3hm-5-5-5-5-5-1-1-3-3-3-3-3-3-|
D:-3hm-5-5-5-5-5-3hm-5-5-5-5-5-1-1-------------|

Intro - Guitar 2
e:------------------------------------|
b:------------------------------------|
g:-5/12-10---12-10--------------------|
d:--------12------10-10-10-10-12-10-8-|   Repeat Twice
a:------------------------------------|
D:------------------------------------|

Verse - Both Guitars

 "I don't know what i can take..."
e:-----------------|
b:-----------------|
g:--------------5--|   Repeat as many times as needed
d:-5-5-xxxx-3-3-5--|
a:-5-5-xxxx-3-3-3--|
D:-5-5-xxxx-3-3----|

Pre-Chorus
 
 "I can't wait forever"
e:----------------|
b:----------------|
g:-----5-5-5-5-5--|
d:-1-1-5-5-5-5-5--|
a:-1-1-3-3-3-3-3--|
D:-1-1------------|
[ Tab from: http://www.guitartabs.cc/tabs/a/american_hi_fi/rise_tab.html ]
Chorus same as Intro

 "Rise, Out of the Atmosphere.."
e:---------------------------------------------|  ends on e:---|
b:---------------------------------------------|          b:---|
g:---------------------------------5-5-5-5-5-5-|          g:---|
d:-3hm-5-5-5-5-5-3hm-5-5-5-5-5-1-1-5-5-5-5-5-5-|          d:-1-|  
a:-3hm-5-5-5-5-5-3hm-5-5-5-5-5-1-1-3-3-3-3-3-3-|          a:-1-| 
D:-3hm-5-5-5-5-5-3hm-5-5-5-5-5-1-1-------------|          D:-1-|


Bulid Up to Solo

 "Did i Breakdown, can we Slowdown"
e:----------------------------------|
b:----------------------------------|
g:-----------------5-5-5-5-5-5-5-5--|
d:-1-1-1-1-1-1-1-1-5-5-5-5-5-5-5-5--|  Repeat twice
a:-1-1-1-1-1-1-1-1-3-3-3-3-3-3-3-3--|
D:-1-1-1-1-1-1-1-1------------------|


Outro

 "You Got the Best of me"
e:-----------------------------|
b:-----------------------------|
g:----------------3-3-3-3-3-3--|
d:3hm-5-5-5-5-5-5-3-3-3-3-3-3--| Repeat as many times needed
a:3hm-5-5-5-5-5-5-1-1-1-1-1-1--|
D:3hm-5-5-5-5-5-5--------------|


I would try and tab the Solo but its got some effects that make it hard so I'll try next time.
Comments