American Hi-fi - Geeks Get The Girls Chords & Tabs

 

Geeks Get The Girls Chords & Tabs

American Hi-fi Chords & Tabs

Version: 5 Type: Tab 0 ratings
1 star 2 stars 3 stars 4 stars 5 stars
comments

Geeks Get The Girls Tab

American Hi-Fi
The Geeks Get The Girls

umm yeah i'm not sure if my other tab came through yet... but i made a little mistake
that i had to fix... but umm yeah this is one of my favorite songs now... and i thought
i'd give everyone here a good tab for it. by the way this song is pretty hard to play..
(yes i have the piano part at the very bottom)

ok i know you're gonna be mad but this song IS in drop d (EBGDAD). 

---------------------------------------------------------------------------
Guitar 1 (rhythm)

intro

E|---------------------------------|
B|---------------------------------|
G|--2-2--4/5-5---------6/7-7--5-4--|
D|--2-2--4/5-5--4/5-5--6/7-7--5-4--|
A|--0-0--2/3-3--4/5-5--4/5-5--3-2--| (x1)
D|--------------4/5-5--------------|

E|--------------------------------------|
B|--------------------------------------|
G|--2-2--4/5-5---------7----------------|
D|--2-2--4/5-5--4/5-5--7-5---7-7---7\x--|
A|--0-0--2/3-3--4/5-5--5-5---7-7---7\x--| (x1) 
D|--------------4/5-5----5---7-7---7\x--|
*slide to whatever note then mute it quickly

verse

E|-------------------------------------|
B|-------------------------------------|
G|--2-2---------4-4---7-7-7-7-7-7-7-7--|
D|--2-2---2-2---4-4---7-7-7-7-7-7-7-7--|
A|--0-0---2-2---2-2---5-5-5-5-5-5-5-5--| (x1)
D|--------2-2---------0-0-0-0-0-0-0-0--|

E|------------------------------------|
B|--2-2-2-2-2-2-2-2--5-5-5-5-5-5-5-5--|
G|--2-2-2-2-2-2-2-2--x-x-x-x-x-x-x-x--|
D|--2-2-2-2-2-2-2-2--2-2-2-2-2-2-2-2--|
A|--0-0-0-0-0-0-0-0--2-2-2-2-2-2-2-2--| (x1)
D|-------------------2-2-2-2-2-2-2-2--|

E|--2-2-2-------2-2-------------------|
B|--x-x-x-5-5-5-x-x-------------------|
G|--4-4-4-4-4-4-4-4--7-7-7-7-7-7-7-7--|
D|--4-4-4-4-4-4-4-4--7-7-7-7-7-7-7-7--|
A|--2-2-2-2-2-2-2-2--5-5-5-5-5-5-5-5--| (x1)
D|-------------------0-0-0-0-0-0-0-0--|

pre-chorus

E|--------------|
B|--------------|
G|--------------|
D|--4~--2~--0~--|
A|--4~--2~--0~--| (x2)
D|--4~--2~--0~--|

E|-----------------------------------|
B|-----------------------------------|
G|--4-4-4-4-4-x-6-x-7-7-7-7-7-7-7-7--|
D|--4-4-4-4-4-x-6-x-7-7-7-7-7-7-7-7--|
A|--2-2-2-2-2-x-4-x-5-5-5-5-5-5-5-5--| (x1)
D|------------------0-0-0-0-0-0-0-0--|

chorus

E|--------------------|
B|--------------------|
G|--2-x-2--2----------|
D|--2-x-2--2--2-x-0~--|
A|--0-x-0--0--2-x-0~--| (x3)
D|------------2-x-0~--|

E|---------------------|
B|---------------------|
G|--4-4-4/6/7-7---9-9--|
D|--4-4-4/6/7-7---9-9--|
A|--2-2-2/4/5-5---7-7--| (x1)
D|---------------------|

post-chorus

E|--------------------------------------|
B|--------------------------------------|
G|--2-2--4/5-5---------7----------------|
D|--2-2--4/5-5--4/5-5--7-5---7-7---7~x--|
A|--0-0--2/3-3--4/5-5--5-5---7-7---7~x--| (x1) 
D|--------------4/5-5----5---7-7---7~x--|
*the last note is the very beginning of the verse

verse

E|----------------------------------------------|
B|----------------------------------------------|
G|--2-2--2-2------------4-4--4-4----------------|
D|--2-2--2-2--2-2--2-2--4-4--4-4---0-0-0-0-0-0--|
A|--0-0--0-0--2-2--2-2--2-2--2-2---0-0-0-0-0-0--| (x1)
D|------------2-2--2-2-------------0-0-0-0-0-0--|

pre-chorus

E|--------------|
B|--------------|
G|--------------|
D|--4~--2~--0~--|
A|--4~--2~--0~--| (x2)
D|--4~--2~--0~--|

E|-----------------------------------|
B|-----------------------------------|
G|--4-4-4-4-4-x-6-x-7-7-7-7-7-7-7-7--|
D|--4-4-4-4-4-x-6-x-7-7-7-7-7-7-7-7--|
A|--2-2-2-2-2-x-4-x-5-5-5-5-5-5-5-5--| (x1)
D|------------------0-0-0-0-0-0-0-0--|

chorus

E|--------------------|
B|--------------------|
G|--2-x-2--2----------|
D|--2-x-2--2--2-x-0~--|
A|--0-x-0--0--2-x-0~--| (x3)
D|------------2-x-0~--|

E|---------------------|
B|---------------------|
G|--4-4-4/6/7-7---9-9--|
D|--4-4-4/6/7-7---9-9--|
A|--2-2-2/4/5-5---7-7--| (x1)
D|---------------------|

post-chorus

E|---------------------------------|
B|---------------------------------|
G|--2-2--4/5-5---------6/7-7--5-4--|
D|--2-2--4/5-5--4/5-5--6/7-7--5-4--|
A|--0-0--2/3-3--4/5-5--4/5-5--3-2--| (x2)
D|--------------4/5-5--------------|

E|------|
B|------|
G|--2~--|
D|--2~--|
A|--0~--| (x1)
D|------|

bridge

E|-------------------------------------------|
B|-------------------------------------------|
G|--2-2-2-----------4-4-4---7-7-7-7-7-7-7-7--|
D|--2-2-2---2-2-2---4-4-4---7-7-7-7-7-7-7-7--|
A|--0-0-0---2-2-2---2-2-2---5-5-5-5-5-5-5-5--| (x1)
D|----------2-2-2-----------0-0-0-0-0-0-0-0--|

pre-chorus

E|--------------|
B|--------------|
G|--------------|
D|--4~--2~--0~--|
A|--4~--2~--0~--| (x2)
D|--4~--2~--0~--|

chorus

E|--------------------|
B|--------------------|
G|--2-x-2--2----------|
D|--2-x-2--2--2-x-0~--|
A|--0-x-0--0--2-x-0~--| (x3)
D|------------2-x-0~--|

E|----------------------------|
B|----------------------------|
G|--4-4-4/6/7-7-7-7--9-9-9-9--|
D|--4-4-4/6/7-7-7-7--9-9-9-9--|
A|--2-2-2/4/5-5-5-5--7-7-7-7--| (x1)
D|----------------------------|

E|--------------------|
B|--------------------|
G|--2-x-2--2----------|
D|--2-x-2--2--2-x-0~--|
A|--0-x-0--0--2-x-0~--| (x3)
D|------------2-x-0~--|

E|----------------------------|
B|----------------------------|
G|--4-4-4/6/7-7-7-7--9-9-9-9--|
D|--4-4-4/6/7-7-7-7--9-9-9-9--|
A|--2-2-2/4/5-5-5-5--7-7-7-7--| (x1)
D|----------------------------|

outro

E|------------------------------------|
B|------------------------------------|
G|--2-2-2-2-2-2-2-2-------------------|
D|--2-2-2-2-2-2-2-2--4-4-4-4-4-4-4-4--|
A|--0-0-0-0-0-0-0-0--4-4-4-4-4-4-4-4--| (x1)
D|-------------------4-4-4-4-4-4-4-4--|

E|---------------------|
B|---------------------|
G|--4-4-4/6/7-7---9-9--|
D|--4-4-4/6/7-7---9-9--|
A|--2-2-2/4/5-5---7-7--| (x1)
D|---------------------|

end on 

E|-------|
B|-------|
G|-------|
D|--7\2--|
A|--7\2--| (x1)
D|--7\2--|

--------------------------------------------------------------------------
Guitar 2 (higher notes)

intro

E|---------------------------------|
B|---------------------------------|
G|--2-2--4/5-5---------6/7-7--5-4--|
D|--2-2--4/5-5--4/5-5--6/7-7--5-4--|
A|--0-0--2/3-3--4/5-5--4/5-5--3-2--| (x1)
D|--------------4/5-5--------------|

E|---------------------------4b(5)-4b(5)--------|
B|----------------------------------------------|
G|--2-2--4/5-5---------7------------------------|
D|--2-2--4/5-5--4/5-5--7-5-----------------7\x--|
A|--0-0--2/3-3--4/5-5--5-5-----------------7\x--| (x1) 
D|--------------4/5-5----5-----------------7\x--|
*slide to whatever note then mute it quickly

verse (i kinda made this up but i think it sounds good)

E|---9--9---7-7---7-7---10-10-10-10-10-10-10-10--|
B|--10-10---5-5---x-x----7--7--7--7--7--7--7--7--|
G|----------------7-7----------------------------|
D|-----------------------------------------------|
A|-----------------------------------------------| (x1)
D|-----------------------------------------------|

E|-------------------0-0-0-0-0-0-0-0--|
B|--2-2-2-2-2-2-2-2--0-0-0-0-0-0-0-0--|
G|--2-2-2-2-2-2-2-2-------------------|
D|------------------------------------|
A|------------------------------------| (x1)
D|------------------------------------|

E|--2-2-2-0-0-0-2-2-------------------|
B|--0-0-0-0-0-0-0-0--3-3-3-3-3-3-3-3--|
G|-------------------2-2-2-2-2-2-2-2--|
D|------------------------------------|
A|------------------------------------| (x1)
D|------------------------------------|

pre-chorus

E|--------------------------|
B|--5/7-7-7-5---------------|
G|------------7-6---6sb(7)--|
D|--------------------------|
A|--------------------------| (x1)
D|--------------------------|
*sb means slow bend

E|-----------------------------------|
B|-----------------------------------|
G|--4-4-4-4-4-x-6-x-7-7-7-7-7-7-7-7--|
D|--4-4-4-4-4-x-6-x-7-7-7-7-7-7-7-7--|
A|--2-2-2-2-2-x-4-x-5-5-5-5-5-5-5-5--| (x1)
D|------------------0-0-0-0-0-0-0-0--|

chorus

E|---5-----5-----5-----5---|
B|--5-5---5-5---5-5---5-5--|
G|-------------------------|
D|-------------------------|
A|-------------------------| (x3)
D|-------------------------|
[ Tab from: http://www.guitartabs.cc/tabs/a/american_hi_fi/geeks_get_the_girls_tab_ver_5.html ]
E|---------------------|
B|---------------------|
G|--4-4-4/6/7-7---9-9--|
D|--4-4-4/6/7-7---9-9--|
A|--2-2-2/4/5-5---7-7--| (x1)
D|---------------------|

post-chorus

E|---------------------------4b(5)-4b(5)--------|
B|----------------------------------------------|
G|--2-2--4/5-5---------7------------------------|
D|--2-2--4/5-5--4/5-5--7-5-----------------7~x--|
A|--0-0--2/3-3--4/5-5--5-5-----------------7~x--| (x1) 
D|--------------4/5-5----5-----------------7~x--|

verse

E|----------------------------------------------|
B|----------------------------------------------|
G|--2-2--2-2------------4-4--4-4---7-7-7-7-7-7--|
D|--2-2--2-2--2-2--2-2--4-4--4-4---7-7-7-7-7-7--|
A|--0-0--0-0--2-2--2-2--2-2--2-2---5-5-5-5-5-5--| (x1)
D|------------2-2--2-2-------------0-0-0-0-0-0--|

pre-chorus

E|--------------------------|
B|--5/7-7-7-5---------------|
G|------------7-6---6sb(7)--|
D|--------------------------|
A|--------------------------| (x1)
D|--------------------------|
*sb means slow bend

E|-----------------------------------|
B|-----------------------------------|
G|--4-4-4-4-4-x-6-x-7-7-7-7-7-7-7-7--|
D|--4-4-4-4-4-x-6-x-7-7-7-7-7-7-7-7--|
A|--2-2-2-2-2-x-4-x-5-5-5-5-5-5-5-5--| (x1)
D|------------------0-0-0-0-0-0-0-0--|

chorus

E|---5-----5-----5-----5---|
B|--5-5---5-5---5-5---5-5--|
G|-------------------------|
D|-------------------------|
A|-------------------------| (x3)
D|-------------------------|

E|---------------------|
B|---------------------|
G|--4-4-4/6/7-7---9-9--|
D|--4-4-4/6/7-7---9-9--|
A|--2-2-2/4/5-5---7-7--| (x1)
D|---------------------|

post-chorus

E|------------------------------------------------|
B|------------------------------------------------|
G|--xx-14-14-14\12--12-12--xx-11-11-11\9--9-9\2~--|
D|--xx--x--x--x\-x---x--x--xx--x--x--x\x--x-x\2~--|
A|--xx-12-12-12\10--10-10--xx--9--9--9\7--7-7\0~--| (x1)
D|------------------------------------------------|

bridge

E|-------------------------------------------|
B|-------------------------------------------|
G|--2-2-2-----------4-4-4---7-7-7-7-7-7-7-7--|
D|--2-2-2---2-2-2---4-4-4---7-7-7-7-7-7-7-7--|
A|--0-0-0---2-2-2---2-2-2---5-5-5-5-5-5-5-5--| (x1)
D|----------2-2-2-----------0-0-0-0-0-0-0-0--|

E|--------------------------|
B|--5/7-7-7-5---------------|
G|------------7-6---6sb(7)--|
D|--------------------------|
A|--------------------------| (x1)
D|--------------------------|
*sb means slow bend

chorus

E|---5-----5-----5-----5---|
B|--5-5---5-5---5-5---5-5--|
G|-------------------------|
D|-------------------------|
A|-------------------------| (x3)
D|-------------------------|

E|----------------------------|
B|----------------------------|
G|--4-4-4/6/7-7-7-7--9-9-9-9--|
D|--4-4-4/6/7-7-7-7--9-9-9-9--|
A|--2-2-2/4/5-5-5-5--7-7-7-7--| (x1)
D|----------------------------|

E|---5-----5-----5-----5---|
B|--5-5---5-5---5-5---5-5--|
G|-------------------------|
D|-------------------------|
A|-------------------------| (x3)
D|-------------------------|

E|----------------------------|
B|----------------------------|
G|--4-4-4/6/7-7-7-7--9-9-9-9--|
D|--4-4-4/6/7-7-7-7--9-9-9-9--|
A|--2-2-2/4/5-5-5-5--7-7-7-7--| (x1)
D|----------------------------|

outro

E|------------------------------9~--|
B|--2-2-2-2-2-2-2-2---10--10---10~--|
G|--2-2-2-2-2-2-2-2----9---9--------|
D|--2-2-2-2-2-2-2-2----7---7--------|
A|--0-0-0-0-0-0-0-0-----------------| (x1)
D|----------------------------------|

E|---------------------|
B|---------------------|
G|--4-4-4/6/7-7---9-9--|
D|--4-4-4/6/7-7---9-9--|
A|--2-2-2/4/5-5---7-7--| (x1)
D|---------------------|

end on 

E|-------|
B|-------|
G|-------|
D|--7\2--|
A|--7\2--| (x1)
D|--7\2--|

---------------------------------------------------------------------------
Keyboard part for Guitar (haha can this tab get any longer?)

verse

E|----------------------------------------------------|
B|--14-14-14-14-14-14-14-14---------------------------|
G|--14-14-14-14-14-14-14-14--16-16-16-16-16-16-16-16--|
D|---------------------------14-14-14-14-14-14-14-14--|
A|----------------------------------------------------| (x1)
D|----------------------------------------------------|

E|----------------------------------------------------|
B|----------------------------------------------------|
G|---------------------------14-14-14-14-14-14-14-14--|
D|--16-16-16-16-16-16-16-16--12-12-12-12-12-12-12-12--|
A|--14-14-14-14-14-14-14-14---------------------------| (x1)
D|----------------------------------------------------|
*play this whole verse 2 times

then break

then pre-chorus

E|--------------|
B|--------------|
G|--------------|
D|--4~--2~--0~--|
A|--4~--2~--0~--| (x2)
D|--4~--2~--0~--|

i don't think the keyboard plays any chorus but this is if it does

E|---5-----5-----5-----5---|
B|--5-5---5-5---5-5---5-5--|
G|-------------------------|
D|-------------------------|
A|-------------------------| (x3)
D|-------------------------|

then second verse

E|----------------------------------------------|
B|--14-14-14-14-14-14---------------------------|
G|--14-14-14-14-14-14--16-16-16-16-16-16-16-16--|
D|---------------------14-14-14-14-14-14-14-14--|
A|----------------------------------------------| (x1)
D|----------------------------------------------|

E|----------------------------------------------------|
B|----------------------------------------------------|
G|---------------------------14-14-14-14-14-14-14-14--|
D|--16-16-16-16-16-16-16-16--12-12-12-12-12-12-12-12--|
A|--14-14-14-14-14-14-14-14---------------------------| (x1)
D|----------------------------------------------------|
*play this one time and do a slide at the end of the verse

pre-chorus

E|---------------17-17-17-17-17-17-17--|
B|-------------------------------------|
G|-------------------------------------|
D|--4~--2~--0~-------------------------|
A|--4~--2~--0~-------------------------| (x1)
D|--4~--2~--0~-------------------------|

E|--------------|
B|--------------|
G|--------------|
D|--4~--2~--0~--|
A|--4~--2~--0~--| (x1)
D|--4~--2~--0~--|

i don't think the keyboard plays any chorus but this is if it does

E|---5-----5-----5-----5---|
B|--5-5---5-5---5-5---5-5--|
G|-------------------------|
D|-------------------------|
A|-------------------------| (x3)
D|-------------------------|

bridge (WICKED HARD to play on guitar... i'd use a keyboardist for this part)

E|--17---21--19--21--------21--19--21----|
B|---------17--17--17--------17--17--17--|
G|----------------------16---------------|
D|--------------------14-----------------|
A|---------------------------------------| (x1)
D|---------------------------------------|

E|-------21--19--21--------22--21--17----|
B|---------17--17--17--------17--17--17--|
G|----18----------------14---------------|
D|--16----------------12-----------------|
A|---------------------------------------| (x1)
D|---------------------------------------|

post-bridge kinda thing

E|---------------17-17-17-17-17-17-17--|
B|-------------------------------------|
G|-------------------------------------|
D|--4~--2~--0~-------------------------|
A|--4~--2~--0~-------------------------| (x1)
D|--4~--2~--0~-------------------------|

E|--------------|
B|--------------|
G|--------------|
D|--4~--2~--0~--|
A|--4~--2~--0~--| (x1)
D|--4~--2~--0~--|

i don't think the keyboard plays any chorus but this is if it does

E|---5-----5-----5-----5---|
B|--5-5---5-5---5-5---5-5--|
G|-------------------------|
D|-------------------------|
A|-------------------------| (x3)
D|-------------------------|

E|---5-----5-----5-----5---|
B|--5-5---5-5---5-5---5-5--|
G|-------------------------|
D|-------------------------|
A|-------------------------| (x3)
D|-------------------------|

keyboard is done after that



OKAY THEN three different tabs for three different guitars (or two guitars and one
keyboardist) but anyways i hope that this will help you and i'm 99% sure that
everything's correct. f you have any questions or comments e-mail me at
killinginthename247@yahoo.com

WE ARE THE SUMS!
Comments