American Hi-fi - Geeks Get The Girls Chords & Tabs

 

Geeks Get The Girls Chords & Tabs

American Hi-fi Chords & Tabs

Version: 4 Type: Tab 0 ratings
1 star 2 stars 3 stars 4 stars 5 stars
comments

Geeks Get The Girls Tab

   
I noticed alot of mistakes in the other versions so i thought i might give it a shot.
This is my first tab

Drop D Tuning

Keyboard Riff/Verse
E|-------------------------|
B|-14-x8-12-x8-10-x8-12----|x8
G|-14-x8-13-x8-11-x8-11----|x8
D|-------------------------|
A|-------------------------|
D|-------------------------|

Fill in Verse 1 & 2 (While playing keyboard riff)
E|------------------------------|
B|------------------------------|
G|---------------44-----777777--|
D|-77-----22-----44-----777777--|
A|-77-----22-----22-----555555--|
D|-77-----22--------------------|
"Wutcha Gonna do..."

E|----------------|
B|----------------|
G|--------4---7---|
D|-7---2--4x8-7x8-|
A|-7x8-2x82---5---|
D|-7---2----------|
^^Palm Muted^^
"Got her holding steady..."
E|--------------|
B|--------------|
G|--------------|
D|-44-22-00-----|
A|-44-22-00-----|
D|-44-22-00-----|
"All the stupid Lines..."

Following riff fill in
E|-------------|
B|-7-77-5-3-2b-|
G|-------------|
D|-------------|
A|-------------|
D|-------------|

E|------------------------------|
B|------------------------------|
G|-----------44444444/77777777--|
D|-44-22-00--44444444/77777777--|
A|-44-22-00--22222222/55555555--|
D|-44-22-00---------------------|
"Wouldn't Come to mind..."
[ Tab from: http://www.guitartabs.cc/tabs/a/american_hi_fi/geeks_get_the_girls_tab_ver_4.html ]
Chorus
E|-------------------  ------------|
B|-------------------  ------------|
G|-------------------  -4----77-99-|
D|-7-77-777-2-22-222-x3-4x8--77-99-|
A|-7-77-777-2-22-222-  -2----55-77-|
D|-7-77-777-2-22-222-  ------------|
"Tonight..."         "..geeks got the girls"

Guitar Riff
E|-------------|
B|-------------|
G|----------77-|
D|----------77-|
A|-00232----55-|
D|------4542---|

Guitar Riff 2
E|----------------------------|
B|----------------------------|
G|------------------------77--|
D|------------------------77--|
A|-00232----5532-00232----55--|
D|------4542----------4542----|

Solo Filling in above
E|-------------
B|-10b\8b\7b\5b
G|-------------|
D|-------------|
A|-------------|
D|-------------|

Verse 3 (Keyboard)
E|--------------------------------------------------------------|
B|-----14--12-------------14--12-----------14--12--15--14--12---|
G|-1414--14--14-13-11-1111--11--111314-1414--14--14--14--14--14-|
D|--------------------------------------------------------------|
A|--------------------------------------------------------------|
D|--------------------------------------------------------------|
"Very next day.."
Fill in
E|----------------------|
B|----------------------|
G|---------444-77777777-|
D|-777-222-444-77777777-|
A|-777-222-222-55555555-|
D|-777-222--------------|
"She comes walking in..."

The rest is already posted above

Great Song...
Comments