American Hi-fi - Geeks Get The Girls Chords & Tabs

 

Geeks Get The Girls Chords & Tabs

American Hi-fi Chords & Tabs

Version: 3 Type: Tab 0 ratings
1 star 2 stars 3 stars 4 stars 5 stars
comments

Geeks Get The Girls Tab

   
-----------------------------------------------------------------
Geeks Get the Girls - American Hi-Fi
-----------------------------------------------------------------
Tabbed by: Daniel T
Email: dtien51@msn.com

I did this to the music video of the song, not the original song itself so this might
sound slightly different.

Tuning: Standard (EADGBe)
[ Tab from: http://www.guitartabs.cc/tabs/a/american_hi_fi/geeks_get_the_girls_tab_ver_3.html ]
Intro/ Verse 1 (Part one):
A E Bm D
Verse 1 (Part two):
e|-------------|
B|-------------|
G|----99----77-|
D|-77-99-99-77-|
A|-77-77-99-55-|
E|-55----77----|
Verse 2:
e|-------------------------------------|
B|-------------------------------------|
G|----------99999999----------77777777-|
D|-77777777-99999999-99999999-77777777-|
A|-77777777-77777777-99999999-55555555-|
E|-55555555----------77777777----------|
Mini-solo:
e|------------------|
B|-5-7-7-7-7-5------|
G|-------------7-6^-|
D|------------------|
A|------------------|
E|------------------|
Prechorus:
e|--------------------------|
B|--------------------------|
G|------9----7---------7----|
D|-7----9-x4-7-x8-9----7-x8-|
A|-7-x4-7----5----9-x8-5----|
E|-5--------------7---------|
Chorus: 
e|-----------------------------------------|
B|-----------------------------------------|
G|------9----7----------------7----9-------|
D|-7----9-x4-7-x4-(x3)---9----7-x4-9-x4-7~-|
A|-7-x8-7----5-----------9-x8-5----7----7~-|
E|-5---------------------7--------------5~-|
Mini-Solo 2:
e|-----------------------|
B|-----------------------|
G|-----------------0h2-2-|
D|-----------------------|
A|-0-0-2-3-2-0-----------|
E|-------------3-3-------|
Interlude:
e|--------------------------|
B|-10-x4-8-x4-7-x4-5-x4-10~-|
G|--------------------------|
D|--------------------------|
A|--------------------------|
E|--------------------------|

e|---------------------------|
B|---------------------------|
G|---------------------------|
D|---------------------------|
A|-0-0-2-3-2-0-----2-3-2-0---|
E|-------------3-3---------3-|
 

| / slide up
| \ slide down
| h hammer-on
| p pull-off
| ~ vibrato
| + harmonic
| x Mute note
Comments