American Hi-fi - Geeks Get The Girls Chords & Tabs

 

Geeks Get The Girls Chords & Tabs

American Hi-fi Chords & Tabs

Version: 1 Type: Tab 0 ratings
1 star 2 stars 3 stars 4 stars 5 stars
comments

Geeks Get The Girls Tab

American Hi-Fi
"The Geeks Get the Girls"

No one would seem to tab this so i had to do it myslef.. hope you enjoy, its fairly easy
please e-mail me with any comments questions corrections whatever! deftones229us@yahoo.com

intro riff

e----------------------------------|
B----------------------------------|
G----------------------------------|
D------------------------------77--|
A--0-0-2-3-3-3p0-0-0-2h3p0-0-0-77--|
E------------------------------55--|


first verse

"What u gonna do...

e--------------------------|
B--------------------------|
G--------------------------|
D-77---55---7777-----------|
A-77---55---7777-----------|
E-55---33---5555-----------|

"have another drink"

e--------------------------|
B--------------------------|
G--------------------------|
D-77---55---77--55---------|
A-77---55---77--55---------|
E-55---33---55--33---------|
  PM   PM   PM  PM

"All the stupid lines..."

e--------------------------|
B--------------------------|
G--------------------------|
D-9977555555555------------|
A-9977555555555----x2------|
E-7755333333333------------|

"couldnt say a word..."

e--------------------------|
B--------------------------|
G--------------------------|
D-999999-------------------|
A-999999----x2-------------|
E-777777-------------------|

Chours:

"Tonight Tonight He's Gonna Get it right"

e--------------------------|
B--------------------------|
G--77777-------------------|
D--77777-77--555-----------|
A--55555-77--555-----------|
E--------55--333-----------|

"Even losers can get lucky sometimes"

e--------------------------|
B--------------------------|
G--77777-------------------|
D--77777-77--555-----------|
A--55555-77--555-----------|
E--------55--333-----------|
[ Tab from: http://www.guitartabs.cc/tabs/a/american_hi_fi/geeks_get_the_girls_tab.html ]
"All the freaks go on a winning streak"

e--------------------------|
B--------------------------|
G--77777-------------------|
D--77777-77--555-----------|
A--55555-77--555-----------|
E--------55--333-----------|

"In a perfect world cos the geeks get the girls"

e--------------------------|
B--------------------------|
G--------------------------|
D-- 777777--99-99----------|
A---777777--99-99----------|
E---555555--77-77----------|


first bridge

e---------------------------|
B---------------------------|
G---------------------------|
D-----------------------55--|
A--0-0-2-3-3-3p0-0-0-2--55--|
E-----------------------77--|

2nd verse

She's got it goin on..

e-----------------------------|
B-----------------------------|
G-----------------------------|
D---77-7-77-7----55-5-55-5----|
A---77-7-77-7----55-5-55-5----|   X2
E---55-5-55-5----33-3-33-3----|
    PM   PM      PM   PM

"She turns and walks away"

e--------------------------|
B--------------------------|
G--------------------------|
D-9977555555555------------|
A-9977555555555----x2------|
E-7755333333333------------|

"said what took ya so long?"

e--------------------------|
B--------------------------|
G--------------------------|
D-999999-------------------|
A-999999----x2-------------|
E-777777-------------------|

*Repeat Chours.. then intro riff X2*


She Comes walkin in

e-------------------------|
B-------------------------|
G-------------------------|
D---77-55-----------------|
A---77-55-----------------|  X2
E---55-33-----------------|

"And All around the world."

e--------------------------|
B--------------------------|
G--------------------------|
D-9977555555555------------|
A-9977555555555----x2------|
E-7755333333333------------|

Repeat Chours X2

Thats it! hope you enjoy
Comments