American Hi Fi - Flavor Of The Weak Chords & Tabs

 

Flavor Of The Weak Chords & Tabs

American Hi Fi Chords & Tabs

Version: 9 Type: Tab 0 ratings
1 star 2 stars 3 stars 4 stars 5 stars
comments

Flavor Of The Weak Tab

-----------------PLEASE NOTE--------------------------------#
#This file is the author's own work and represents their interpretation of the#
#song. You may only use this file for private study, scholarship, or research.#
#-----------------------------------------------------------------------------#
#-- File created with Instab - http://www.pconline.com/~smcarey/instab.html --#
#------------------------------http://www.geocities.com/haitedyewth-----------#

Author/Artist: American Hi-Fi
Title: Flavor Of The Week
Transcribed by: Justin McCarthy
Email: blindfear1@aol.com

click here for Justin's band Haited Yewth at www.geocities.com/haitedyewth

drop "d" tuning on the 6th string

e:|------------------------------------------------------------------|(repeat 4 times; guitar 2 comes in on the second time)
B:|------------------------------------------------------------------|
G:|------------------------------------------------------------------|
D:|-3-5-5---5-5---5-5---0-1-0-1-1-0-3-5-5---5-5---5-5---0-1-0-1-1-0--|
A:|-3-5-5---5-5---5-5---0-1-0-1-1-0-3-5-5---5-5---5-5---0-1-0-1-1-0--|
D:|-3-5-5---5-5---5-5---0-1-0-1-1-0-3-5-5---5-5---5-5---0-1-0-1-1-0--|


verse   (palm muted with distortion)
e:|------------------------------------------------------------------------------|
B:|------------------------------------------------------------------------------|
G:|---3--3-3-3-3-3-3---------------------------------8-8-8-8-8-8-8-8-------------|
D:|---3--3-3-3-3-3-3-3-3-3-3-3-3-3-3-5-5-5-5-5-5-5-5-8-8-8-8-8-8-8-8-------------|
A:|---1--1-1-1-1-1-1-3-3-3-3-3-3-3-3-5-5-5-5-5-5-5-5-6-6-6-6-6-6-6-6-------------|
D:|------------------3-3-3-3-3-3-3-3-5-5-5-5-5-5-5-5-----------------------------|
      She paints her nails and she don't know....

e:---------------------------------------------------------------------|(let this ring out)
B:---------------------------------------------------------------------|
G:--3-3-3-3-3-3-3-3---------------------------------8-8-8-8-8-8-8-8----|
D:--3-3-3-3-3-3-3-3-3-3-3-3-3-3-3-3-5-5-5-5-5-5-5-5-8-8-8-8-8-8-8-8----|
A:--1-1-1-1-1-1-1-1-3-3-3-3-3-3-3-3-5-5-5-5-5-5-5-5-6-6-6-6-6-6-6-6----|
D:------------------3-3-3-3-3-3-3-3-5-5-5-5-5-5-5-5--------------------|
     She'll wash her hair, his dirty clothes...
(guitar one; played with fill 1)
e:|------------------------------------------------------------------------------|
B:|------------------------------------------------------------------------------|
G:|-----------------3-----3-3--------------------5--5-5-5-5-5-5-5-5-5-5-5-5-5-5--|
D:|-5-----5-5-------3-----3-3-------3-----3-3----5--5-5-5-5-5-5-5-5-5-5-5-5-5-5--|
A:|-5-----5-5-------1-----1-1-------3-----3-3----3--3-3-3-3-3-3-3-3-3-3-3-3-3-3--|
D:|-5-----5-5-----------------------3-----3-3------------------------------------|
...and he's got posters on the wall..
e:---------------------|
B:---------------------|
G:---------------------|
D:-1-1-1-1-1-1-1-1-3---|
A:-1-1-1-1-1-1-1-1-3---|
D:-1-1-1-1-1-1-1-1-3---|

(fill 1; played with the riff above)
e:------------------------------------------------------------------------------|
B:------------------------------------------------------------------------------|
G:-5---5-5-5-5-5-5-5-5-5-5/8---7---3--------------------------------------------|
D:------------------------------------------------------------------------------|
A:-3---3-3-3-3-3-3-3-3-3-3/6---5---1--------------------------------------------|
D:------------------------------------------------------------------------------|
[ Tab from: http://www.guitartabs.cc/tabs/a/american_hi_fi/flavor_of_the_weak_tab_ver_9.html ]
Chorus
e:---------------------------------------------------------------------------------------------------------------------------------|
B:---------------------------------------------------------------------------------------------------------------------------------|
G:-3---3---------------------------5-5-5-5-5-5-5-5/8-8-8-8-8-8-8-8-----------------------------------------------------------------|
D:-3---3-----------3---3-----------5-5-5-5-5-5-5-5/8-8-8-8-8-8-8-8-----------------------------------------------------------------|
A:-1---1-----------3---3-----------3-3-3-3-3-3-3-3/6-6-6-6-6-6-6-6-----------------------------------------------------------------|
D:-----------------3---3-----------------------------------------------------------------------------------------------------------|
  Her boyfriend he don't know  anything   about her                                                                            e:--|
B:---------------------------------------------------------------------------------------------------------------------------------|
G:-3---3---------------------------5-5-5-5-5-5-5-5/8-8-8-8-8-8-8-8-----------------------------------------------------------------|
D:-3---3-----------3---3-----------5-5-5-5-5-5-5-5/8-8-8-8-8-8-8-8-----------------------------------------------------------------|
A:-1---1-----------3---3-----------3-3-3-3-3-3-3-3/6-6-6-6-6-6-6-6-----------------------------------------------------------------|
D:-----------------3---3-----------------------------------------------------------------------------------------------------------|
  He's too stoned   Nintendo   I wish that I could make her see

(Played with fill 2)
e:------------------------------------------------------------------------------|
B:------------------------------------------------------------------------------|
G:-3-3-3-3-3-3-3-3-----------------5-5-5-5-5-5-5-5/8-8-8-8-8-8-8-8--------------|
D:-3-3-3-3-3-3-3-3-3-3-3-3-3-3-3-3-5-5-5-5-5-5-5-5/8-8-8-8-8-8-8-8--------------|
A:-1-1-1-1-1-1-1-1-3-3-3-3-3-3-3-3-3-3-3-3-3-3-3-3/6-6-6-6-6-6-6-6--------------|
D:-----------------3-3-3-3-3-3-3-3----------------------------------------------|
   She's just the flavor of the week
e:------------------------------------------------------------------------------|
B:------------------------------------------------------------------------------|
G:-3-3-3-3-3-3-3-3--------------------------------------------------------------|
D:-3-3-3-3-3-3-3-3-3-3-3-3-3-3-3-3-5-5---5-5---5-5---0-1-0-1-1-0----------------|
A:-1-1-1-1-1-1-1-1-3-3-3-3-3-3-3-3-5-5---5-5---5-5---0-1-0-1-1-0----------------|
D:-----------------3-3-3-3-3-3-3-3-5-5---5-5---5-5---0-1-0-1-1-0----------------|

fill 2 (played with the riff above)
e:--------------------------------------------------------------3---------------|
B:------------------------------------------------------------------------------|
G:-5b7r5--3------5b7r5--3--------5b7r5--3------5b7r5--3--5b7------7r5--3--------|
D:-----------3-------------5---------------3------------------------------------|
A:---------------------------------------------------------^--------------------|
D:---------------------------------------------------------^--------------------|
                                                           ^hold this bend
repeat verse with fill 3

 fill 3 clean tone  (play 4 times over the second verse)
e:|-------------------10----10----10------|
B:|---11--13--13--11----11----11----------|
G:|-10--10--10--10--10----10----10--------|
D:|---------------------------------------|
A:|---------------------------------------|
D:|---------------------------------------|

repeat chorus

guitar solo:
e:-------------------------------------|
B:-------------------------------------|
G:--5b7--6b8--8b10--10b12--12----------|
D:-------------------------------------|
A:-------------------------------------|
D:-------------------------------------|


e:------------------------------------------------------------------------------|
B:------------------------------------------------------6b8--8b10--9b11--11b13--|
G:-5b7--6b8--8b10--10b12-12---5b7--6b8--8b10--10b12-12--------------------------|
D:------------------------------------------------------------------------------|
A:------------------------------------------------------------------------------|
D:------------------------------------------------------------------------------|


e:-13------13------13------13------13-------------------------------------------|
B:---13b15---13b15---13b15---13b15---15r13--111111-10-10-8-8--------------------|
G:------------------------------------------121212-10-10-8-8-10-10-7/8--8--8----|
D:-----------------------------------------------------------12-12-8/10-10-10---|
A:------------------------------------------------------------------------------|
D:------------------------------------------------------------------------------|


e:--------------------------------------------------13-13------13-13------13----|
B:------------9/11-11-11----11----11----11--13-13b15------13b15------13b15------|
G:-7h8p7------9/10-------10----10----10-----------------------------------------|
D:-------10-8-------------------------------------------------------------------|
A:------------------------------------------------------------------------------|
D:------------------------------------------------------------------------------|


e:-13------13-------------------------------------------------------------------|
B:----13b15----11--8------------------------------------------------------------|
G:-------------10-----10--8-----------------------------------------------------|
D:------------------------------------------------------------------------------|
A:------------------------------------------------------------------------------|
D:------------------------------------------------------------------------------|

repeat fill 3
her boyfriend he don't know anything about her he's too stoned, he's too stoned...

repeat chorus

email me with any questions blindfear1@aol.com
I am currently taking tab requests!
 ...check out my band Haited Yewth... www.geocities.com/haitedyewth
Comments