American Hi Fi - Flavor Of The Weak Chords & Tabs

 

Flavor Of The Weak Chords & Tabs

American Hi Fi Chords & Tabs

Version: 7 Type: Tab 0 ratings
1 star 2 stars 3 stars 4 stars 5 stars
comments

Flavor Of The Weak Tab

   
"Flavor of the Week" by American Hi-Fi

*Played in Drop D*

Intro:
     F    G    G    G    D#   D    D#

e|----------------------------------------|
b|----------------------------------------|  Played
g|----------------------------------------|
d|---3---5-5--5-5--5-5---1-1--0---1-1-1---|  4 Times
a|---3---5-5--5-5--5-5---1-1--0---1-1-1---|
D|---3---5-5--5-5--5-5---1-1--0---1-1-1---|

Verse:
     A#      F       G       D#

e|-----------------------------------|
b|-----------------------------------|
g|-----------------------------------|
d|---8xxxx---3xxxx---5xxxx---1xxxx---|
a|---8xxxx---3xxxx---5xxxx---1xxxx---|
D|---8xxxx---3xxxx---5xxxx---1xxxx---|

PreChorus:
       G           A#        F         C1    D#1 D1    A#1     C1

e|--------------------------------------------------------------------|
b|--------------------------------------------------------------------|
g|------------------------------------55555-/-8-/-7-/-33333-/-55555---|
d|---5--5-5-----8--8-8-----3--3-3-----xxxxx-/-x-/-x-/-xxxxx-/-xxxxx---|
a|---5--5-5-----8--8-8-----3--3-3-----33333-/-6-/-5-/-11111-/-33333---|
D|---5--5-5-----8--8-8-----3--3-3-----00000-/-0-/-0-/-00000-/-00000---|

Chorus:
     A#      F       C         D#

e|------------------------------------|
b|------------------------------------|   Played
g|-----------------555555----888888---|
d|---8-8----3-3----555555----888888---|   Twice
a|---8-8----3-3----333333----666666---|
D|---8-8----3-3-----------------------|

Solo 1:

e|---------------------------------------------------------------------------------------|
b|------------------------------------------------------------------------------8--------|
g|---7--5---------7--5------------------------------7--5---------7--5-----7^8--------3---|
d|---------8------------8--5------------------------------8------------8-----------------|
a|------------8----------------------------------------------8---------------------------|
D|---------------------------------------------------------------------------------------|

Solo 1 Rhythm Guitar:
[ Tab from: http://www.guitartabs.cc/tabs/a/american_hi_fi/flavor_of_the_weak_tab_ver_7.html ]
e|--------------------------------------------------------------------------------------|
b|--------------------------------------------------------------------------------------|
g|--------------------------------------------------------------------------------------|
d|---88888888---33333333---55555555---11111111-----88888888---33333333---[             ]|
a|---88888888---33333333---55555555---11111111-----88888888---33333333---[    Intro    ]|
D|---88888888---33333333---55555555---11111111-----88888888---33333333---[             ]|

Solo 2:

e|------------------------[------Repeat--------]------------------------|
b|------------------------[--------------------]------------------------|
g|---7--5--------7--5-----[7^--8^--10^--12^-12^]--12^--13^--15^--17^-17^|
d|---------8-----------8--[--------------------]------------------------|
a|-----------8------------[---Three---Times----]------------------------|
D|------------------------[--------------------]------------------------|

e|---13---------13-----13------13-----13------------------------------------------------------------|
b|-------15/16-----14^----14^-----14^-----15--13-----15-/-13-13-/-11-11-/-10-10-/-88888-/-7---------|
g|-----------------------------------------------15--15-/-14-14-/-12-12-/-10-10-/-88888-/-7---------|
d|------------------------------------------------------------------------------------------10--8---|
a|--------------------------------------------------------------------------------------------------|
D|--------------------------------------------------------------------------------------------------|

e|---------------------------------------------13------13------13------13-----------------|
b|-------------------------------------13--15------15^-----15^-----15^--------------------|
g|---/15--15--15--12-15--12-15--12-15---------------------------------------7-7---5---3---|
d|--------------------------------------------------------------------------8-8---5---3---|
a|----------------------------------------------------------------------------------------|
D|----------------------------------------------------------------------------------------|

Solo 2 Rhythm Guitar:  Same as solo 1; continue intro riff until the end of the solo.

(#3) Quite Section Immediately Follow Solo:

e|------8-----10------8----10--8------10--8-------10--8------|
b|---11----11-----11-------------11---------11----------11---|      Chorus
g|-----------------------------------------------------------|
d|-----------------------------------------------------------|   Played At the
a|-----------------------------------------------------------|
D|-----------------------------------------------------------| End of this Section

Intro
Verse
PreChorus
Chorus
Solo 1
Verse
PreChorus
Chorus
Solo 2
#3
Chorus   Solo 1
Chorus   Solo 1

Ok - this is tab #2 for me.  I hate everyone who tabs a song & then thinks they're done,
even tho they didn't tab the solo.  My solo is 99% correct... and that would make me God.
Please send corrections and hate mail to Virii_116@Hotmail.com.  Enjoy Da Tab.
["Poor Andy" is pimp.]                                   --Sean Rippen--
Comments