American Hi Fi - Flavor Of The Weak Chords & Tabs

 

Flavor Of The Weak Chords & Tabs

American Hi Fi Chords & Tabs

Version: 5 Type: Tab 0 ratings
1 star 2 stars 3 stars 4 stars 5 stars
comments

Flavor Of The Weak Tab

Author/Artist: American Hi-Fi
Title: Flavor of the Weak
Transcribed by: Andrew Biles
Email: andrewbiles@hotmail.com

this is the whole solo, I'll think about putting the rest of the song up
totally soon, but there's an ok version, not perfect, but will do, and this is
the correct solo, so enjoy.

------------------------------------------------------------------------------
-3---4---6---8----8---8---8---------------------------------------------------
-5^--6^--8^--10^--10b-10b-10b-------------------------------------------------
------------------------------------------------------------------------------
------------------------------------------------------------------------------
------------------------------------------------------------------------------
 b meaning play the note bent and not from the original position.  (x3)       
[ Tab from: http://www.guitartabs.cc/tabs/a/american_hi_fi/flavor_of_the_weak_tab_ver_5.html ]
------------------------------------------------------------------------------
-8----10---11---13---13---13---13---------------------------------------------
-10^--12^--13^--15^--15b--15b--15b--------------------------------------------
------------------------------------------------------------------------------
------------------------------------------------------------------------------
------------------------------------------------------------------------------
                                                                              

-----------------------------------------------------------------3--3-3-------
-18-----18-----18-----18-----18-------15-15-13-13-11-11-10-10--/-4--4-4-------
----17^----17^----17^----17b----17r---15-15-14-14-12-12-10-10-----------------
------------------------------------------------------------------------------
------------------------------------------------------------------------------
------------------------------------------------------------------------------
                                                                              

------------------------------------------------------------------------------
-3h4p3---------15-15----15-15----15-----18-18-----18-18-18-----18-18-18-------
-------5-3--/--15-15----15-15----15-17^-------17^----------17^----------------
---------------------17-------17----------------------------------------------
------------------------------------------------------------------------------
------------------------------------------------------------------------------
                                                                              

-------------------
-------------------
-15-----15---------
-15h17--15---------
-----------17--13--
-------------------
Comments