American Hi Fi - Flavor Of The Weak Chords & Tabs

 

Flavor Of The Weak Chords & Tabs

American Hi Fi Chords & Tabs

Version: 11 Type: Tab 0 ratings
1 star 2 stars 3 stars 4 stars 5 stars
comments

Flavor Of The Weak Tab

American Hi-Fi
Flavor of the Weak

i know there's a 5-star tab for this song... but i couldn't help tabbing this one for
myself. i'm sure it's 100% correct.

drop d tuning (EBGDAD).

---------------------------------------------------------------------------
Guitar 1: (rhythm)

intro 

E|--------------------------------|
B|--------------------------------|
G|--------------------------------|
D|--3/5-5--5-5--5-5--1-1-0-1-1-0--|
A|--3/5-5--5-5--5-5--1-1-0-1-1-0--| (x4)
D|--3/5-5--5-5--5-5--1-1-0-1-1-0--|

verse

E|---------------------------------------|
B|---------------------------------------|
G|--3-333333-------------------88888888--|
D|--3-333333-33333333-55555555-88888888--|
A|--1-111111-33333333-55555555-66666666--| (x1)
D|-----------33333333-55555555-----------|
*palm-mute everything except for the first note

E|---------------------------------------|
B|---------------------------------------|
G|--33333333-------------------88888888--|
D|--33333333-33333333-55555555-88888888--|
A|--11111111-33333333-55555555-66666666--| (x1)
D|-----------33333333-55555555-----------|
*palm-mute everything except for the last set of 8 notes

pre-chorus

E|---------------------------------------|
B|---------------------------------------|
G|------------3-3--x-3-3--3--------------|
D|--5-x--5-5--3-3--x-3-3--3-3--x-3-3--x--|
A|--5-x--5-5--1-1--x-1-1--1-3--x-3-3--x--| (x1)
D|--5-x--5-5----------------3--x-3-3--x--|

E|---------------------------|
B|---------------------------|
G|--5-5-5-5-5-5-5-5----------|
D|--5-5-5-5-5-5-5-5--1~--3~--|
A|--3-3-3-3-3-3-3-3--1~--3~--| (x1)
D|-------------------1~--3~--|
*this is light and kinda hard to hear

chorus

E|----------------------------------|
B|----------------------------------|
G|--3-3---------55555555------------|
D|--3-3---3-3---55555555--11111111--|
A|--1-1---3-3---33333333--11111111--| (x2)
D|--------3-3-------------11111111--|

E|------------------------------------------|
B|------------------------------------------|
G|--33333333------------55555555------------|
D|--33333333--33333333--55555555--11111111--|
A|--11111111--33333333--33333333--11111111--| (x1)
D|------------33333333------------11111111--|

E|--------------------------------------------------|
B|--------------------------------------------------|
G|--33333333----------------------------------------|
D|--33333333--33333333--5-5--5-5--5-5--1-1-0-1-1-0--|
A|--11111111--33333333--5-5--5-5--5-5--1-1-0-1-1-0--| (x1)
D|------------33333333--5-5--5-5--5-5--1-1-0-1-1-0--|

verse

E|---------------------------------------|
B|---------------------------------------|
G|--3-333333-------------------88888888--|
D|--3-333333-33333333-55555555-88888888--|
A|--1-111111-33333333-55555555-66666666--| (x1)
D|-----------33333333-55555555-----------|
*palm-mute everything except for the first note

E|---------------------------------------|
B|---------------------------------------|
G|--33333333-------------------88888888--|
D|--33333333-33333333-55555555-88888888--|
A|--11111111-33333333-55555555-66666666--| (x1)
D|-----------33333333-55555555-----------|
*palm-mute everything

pre-chorus

E|---------------------------------------|
B|---------------------------------------|
G|------------3-3--x-3-3--3--------------|
D|--5-x--5-5--3-3--x-3-3--3-3--x-3-3--x--|
A|--5-x--5-5--1-1--x-1-1--1-3--x-3-3--x--| (x1)
D|--5-x--5-5----------------3--x-3-3--x--|

E|---------------------------|
B|---------------------------|
G|--5-5-5-5-5-5-5-5----------|
D|--5-5-5-5-5-5-5-5--1~--3~--|
A|--3-3-3-3-3-3-3-3--1~--3~--| (x1)
D|-------------------1~--3~--|
*this is light and kinda hard to hear

chorus

E|----------------------------------|
B|----------------------------------|
G|--3-3---------55555555------------|
D|--3-3---3-3---55555555--11111111--|
A|--1-1---3-3---33333333--11111111--| (x2)
D|--------3-3-------------11111111--|

E|------------------------------------------|
B|------------------------------------------|
G|--33333333------------55555555------------|
D|--33333333--33333333--55555555--11111111--|
A|--11111111--33333333--33333333--11111111--| (x1)
D|------------33333333------------11111111--|

E|----------------------|
B|----------------------|
G|--33333333------------|
D|--33333333--33333333--|
A|--11111111--33333333--| (x1)
D|------------33333333--|

bridge/solo

E|------------------------------|
B|------------------------------|
G|------------------------------|
D|--5-5--5-5--5-5--1-1-0-1-1-0--|
A|--5-5--5-5--5-5--1-1-0-1-1-0--| (x1)
D|--5-5--5-5--5-5--1-1-0-1-1-0--|

E|--------------------------------|
B|--------------------------------|
G|--------------------------------|
D|--3/5-5--5-5--5-5--1-1-0-1-1-0--|
A|--3/5-5--5-5--5-5--1-1-0-1-1-0--| (x3)
D|--3/5-5--5-5--5-5--1-1-0-1-1-0--|

E|------------------------------------------------------------|
B|------------------------------------------------------------|
G|--3-3--3-3--3-3---------------3-5-5--5-5--5-5---------------|
D|--3-3--3-3--3-3--3-3-0-3-3-0--3-5-5--5-5--5-5--1-1-0-1-1-0--|
A|--1-1--1-1--1-1--3-3-0-3-3-0--1-3-3--3-3--3-3--1-1-0-1-1-0--| (x1)
D|-----------------3-3-0-3-3-0-------------------1-1-0-1-1-0--|

E|---------------------------------------------------------|
B|---------------------------------------------------------|
G|--3-3--3-3--3-3---------------3-5-5--5-5--5-5------------|
D|--3-3--3-3--3-3--3-3-0-3-3-0--3-5-5--5-5--5-5--1-1-0-1~--|
A|--1-1--1-1--1-1--3-3-0-3-3-0--1-3-3--3-3--3-3--1-1-0-1~--| (x1)
D|-----------------3-3-0-3-3-0-------------------1-1-0-1~--|

E|---------------------------------|
B|---------------------------------|
G|--3-3---------5-5---888---888----|
D|--3-3---3-3---5-5---888-0-888-0--|
A|--1-1---3-3---3-3---666-0-666-0--| (x1)
D|--------3-3-------------0-----0--|

chorus/outro

E|------------------------------------------|
B|------------------------------------------|
G|--33333333------------55555555------------|
D|--33333333--33333333--55555555--11111111--|
A|--11111111--33333333--33333333--11111111--| (x4)
D|------------33333333------------11111111--|

E|------------------------------------|
B|------------------------------------|
G|--33333333------------55555555------|
D|--33333333--33333333--55555555--6~--|
A|--11111111--33333333--33333333--6~--| (x4)
D|------------33333333------------6~--|

ok time for second guitar

----------------------------------------------------------------------------
Guitar 2: (higher notes/soloist)

intro (come in after 1st guitar)

E|--------------------------------|
B|--------------------------------|
G|--------------------------------|
D|--3/5-5--5-5--5-5--1-1-0-1-1-0--|
A|--3/5-5--5-5--5-5--1-1-0-1-1-0--| (x3)
D|--3/5-5--5-5--5-5--1-1-0-1-1-0--|

verse

E|---------------------------------------|
B|---------------------------------------|
G|--3-333333-------------------88888888--|
D|--3-333333-33333333-55555555-88888888--|
A|--1-111111-33333333-55555555-66666666--| (x1)
D|-----------33333333-55555555-----------|
*palm-mute everything except for the first note
[ Tab from: http://www.guitartabs.cc/tabs/a/american_hi_fi/flavor_of_the_weak_tab_ver_11.html ]
E|---------------------------------------|
B|---------------------------------------|
G|--33333333-------------------88888888--|
D|--33333333-33333333-55555555-88888888--|
A|--11111111-33333333-55555555-66666666--| (x1)
D|-----------33333333-55555555-----------|
*palm-mute everything except for the last set of 8 notes

pre-chorus

E|---------------------------------------|
B|---------------------------------------|
G|------------3-3--x-3-3--3--------------|
D|--5-x--5-5--3-3--x-3-3--3-3--x-3-3--x--|
A|--5-x--5-5--1-1--x-1-1--1-3--x-3-3--x--| (x1)
D|--5-x--5-5----------------3--x-3-3--x--|

E|--------------------------------------------------|
B|--------------------------------------------------|
G|--2-2--3-3--5-5--3-3--2-2--3-3--5-5--3-3--0~--5~--|
D|--------------------------------------------------|
A|--------------------------------------------------| (x1)
D|--------------------------------------------------|

somehow he recorded over himself... so here's an alternative

E|-------------------------------------------|
B|-------------------------------------------|
G|--2-2--3-3--5-5--3-3--2-2--3-3--8-7-3~--5--|
D|--------------------------------x-x-x~--3--|
A|--------------------------------6-5-1~--3--| (x1)
D|----------------------------------------3--|

chorus

E|----------------------------------|
B|----------------------------------|
G|--3-3---------55555555--88888888--|
D|--3-3---3-3---55555555--88888888--|
A|--1-1---3-3---33333333--66666666--| (x2)
D|--------3-3-----------------------|

E|-------------------------------|
B|-------------------------------|
G|--5b(7)r5-3-----5b(7)r5-3------|
D|------------3v------------5v~--|
A|-------------------------------| (x1)
D|-------------------------------|

E|------------------------------------5--------------|
B|--------------------------------------pb(2)3r2-----|
G|--5b(7)r5-3-----5b(7)r5-3---5b(7)--------------3~--|
D|------------3v-------------------------------------|
A|---------------------------------------------------| (x1)
D|---------------------------------------------------|
*pb is pre-bend... pre-bend the 2 to the 3 then release back to 2

verse

E|---------------10----10----10--|
B|--11-13-13-11----11----11------|
G|-------------------10----10----|
D|-------------------------------|
A|-------------------------------| (x4)
D|-------------------------------|

pre-chorus

E|---------------------------------------|
B|---------------------------------------|
G|------------3-3--x-3-3--3--------------|
D|--5-x--5-5--3-3--x-3-3--3-3--x-3-3--x--|
A|--5-x--5-5--1-1--x-1-1--1-3--x-3-3--x--| (x1)
D|--5-x--5-5----------------3--x-3-3--x--|

E|--------------------------------------------------|
B|--------------------------------------------------|
G|--2-2--3-3--5-5--3-3--2-2--3-3--5-5--3-3--0~--5~--|
D|--------------------------------------------------|
A|--------------------------------------------------| (x1)
D|--------------------------------------------------|

somehow he recorded over himself... so here's an alternative

E|-------------------------------------------|
B|-------------------------------------------|
G|--2-2--3-3--5-5--3-3--2-2--3-3--8-7-3~--5--|
D|--------------------------------x-x-x~--3--|
A|--------------------------------6-5-1~--3--| (x1)
D|----------------------------------------3--|

chorus

E|----------------------------------|
B|----------------------------------|
G|--3-3---------55555555--88888888--|
D|--3-3---3-3---55555555--88888888--|
A|--1-1---3-3---33333333--66666666--| (x2)
D|--------3-3-----------------------|

E|-------------------------------|
B|-------------------------------|
G|--5b(7)r5-3-----5b(7)r5-3------|
D|------------3v------------5v~--|
A|-------------------------------| (x1)
D|-------------------------------|

E|---------------------------|
B|---------------------------|
G|--5b(7)r5-3-----5b(7)r5-3--|
D|------------3v-------------|
A|---------------------------| (x1)
D|---------------------------|

bridge/solo

E|---------------------------------|
B|---------------------------------|
G|--7-8-10--121212\10/-121212\10/--|
D|--x-x--x---x-x-x\-x/--x-x-x\-x/--|
A|--5-6--8--101010\-8/-101010\-8/--| (x3)
D|---------------------------------|

E|-------------------------------|
B|-------------------------------|
G|--12--14--15--1717-x-17171717--|
D|---x---x---x---x-x-x--x-x-x-x--|
A|--10--12--13--1515-x-15151515--| (x1)
D|-------------------------------|

E|--13--------13--------13--------13--------13---------------|
B|----13b(15)---13b(15)---13b(15)---13b(15)---pb(13)15r(13)--|
G|-----------------------------------------------------------|
D|-----------------------------------------------------------|
A|-----------------------------------------------------------| (x1)
D|-----------------------------------------------------------|

E|------------------------------------------------------------------|
B|--1515-15--13-13--11-11-------------------------------------------|
G|-------------------------12-12------------------------------------|
D|----------------------------------(11)/13--13-13-12b(13)r12-10-8--|
A|-------------------------------10---------------------------------| (x1)
D|------------------------------------------------------------------|

E|--------------------------------------------------13-13--|
B|----------11-11----11-11----11~----11-13-13sb(15)--------|
G|--(10)/12-10-10-12-10-10-12-10~--12----------------------|
D|---------------------------------------------------------|
A|---------------------------------------------------------| (x1)
D|---------------------------------------------------------|

E|---------131313--------131313--------13~---------------|
B|--13b(15)-------13b(15)-------13b(15)-----11-----------|
G|------------------------------------------10-10--------|
D|------------------------------------------------12-8~--|
A|-------------------------------------------------------| (x1)
D|-------------------------------------------------------|

post-solo thing

E|--------------------10----10----10--|
B|----11--13--13--11----11----11------|
G|--10--10--10--10--10----10----10----|
D|------------------------------------|
A|------------------------------------| (x4)
D|------------------------------------|
*keep looping this part... if you want you can go onto this

E|-------------------------------|
B|-------------------------------|
G|--5b(7)r5-3-----5b(7)r5-3------|
D|------------3v------------5v~--|
A|-------------------------------| (x3)
D|-------------------------------|

E|-------------|
B|-------------|
G|--5-7-5-7-3--|
D|-------------|
A|-------------| (x1)
D|-------------|

E|--------------------------------------------------|
B|---------------------------3--4--3--4--4-3--------|
G|--5b(7)r5-3-----5b(7)r5-3--3--5--3--5------3-5-3--|
D|------------3v------------------------------------|
A|--------------------------------------------------| (x1)
D|--------------------------------------------------|

E|---------------------------------------|
B|---------------------------------------|
G|--5b(7)r5-3-----5b(7)r5-3-(3)/5~---3~--|
D|------------3v-------------------------|
A|---------------------------------------| (x1)
D|---------------------------------------|

there you go... PLEASE RATE THIS HIGH!!! i'm sure it's 100% correct. i hope you enjoy!
if you have any comments or questions you can e-mail me at killinginthename247@yahoo.com

WE ARE THE SUMS!
Comments