American Hi Fi - Flavor Of The Weak Chords & Tabs

 

Flavor Of The Weak Chords & Tabs

American Hi Fi Chords & Tabs

Version: 10 Type: Tab 0 ratings
1 star 2 stars 3 stars 4 stars 5 stars
comments

Flavor Of The Weak Tab

This is played by at the start by bending the g string up as far as possible
towards the lower strings.
^=bend
/=slide up
\=slide down        Solo intro
e----------------------------|----------------------------|
b-3-----5------6-----8-------|--3----5-----6-----8--------|
g---5^-----7^-----8^----10^\-|----5^----7^----8^----10^---|
d----------------------------|----------------------------|
a----------------------------|----------------------------|
e----------------------------|----------------------------|

----------------------------------13-----13-----13-----13--------|
--8-----10-------11------13----------15^----15^----15^-----15^---|
----10^-----12^------13^----15^----------------------------------|
-----------------------------------------------------------------|
-----------------------------------------------------------------|
-----------------------------------------------------------------|
[ Tab from: http://www.guitartabs.cc/tabs/a/american_hi_fi/flavor_of_the_weak_tab_ver_10.html ]
--13-----13-----13-----13-------10--10--9--9--8-8-7-7-\-3\2/3--------------------------------|
-----15^----15^----15^----15^---11--11--10-10-9-9-8-8-\-4\3/4--------------------------------|
---------------------------------------------------------------------------------------------|
---------------------------------------------------------------------------------------------|
---------------------------------------------------------------------------------------------|
---------------------------------------------------------------------------------------------|

--10-10-10-10----------------8---8--8--8-----------------|-------------------|
--11-11-11-11--12-12-12-12-----6^-6^-6^-6^---------------|-------------------|
---------------11-11-11-11-----------------15--13--------|-------------------|
---------------------------------------------------12--14|-------------------|
-----------------------------------------------------------------------------|
-----------------------------------------------------------------------------|
Comments