American Hi Fi - Flavor Of The Weak Chords & Tabs

 

Flavor Of The Weak Chords & Tabs

American Hi Fi Chords & Tabs

Version: 1 Type: Bass Tab 0 ratings
1 star 2 stars 3 stars 4 stars 5 stars
comments

Flavor Of The Weak Bass Tab

Tabbed by dan greenhalgh

This tab should be played with drop D Tuning, but can be played like this.

Intro

G----------------|----------------|
D-5-5--5-5--5-5--|-1-1-0-1-1-1-3--| 2X (after guitar has done it twice)
A----------------|----------------|
E----------------|----------------|

Verse

G-------------------|-----------------|-----------------|-----------------|
D-------------------|-----------------|-----------------|-1-1-1-1-1-1-1-1-| 2X
A-1-1-1-1-1-1-1-1-1-|-----------------|-----------------|-----------------|
E-------------------|-1-1-1-1-1-1-1-1-|-3-3-3-3-3-3-3-3-|-----------------|

Pre-Chorus

G--------|--------|--------|-----------------|-----------------|-----------------|
D--------|--------|--------|-----------------|-----------------|-----------------|
A--------|-1--1-1-|--------|-3-3-3-3-3-3-6-5-|-1-1-1-1-1-1-1-1-|-3-3-3-3-3-3-3-3-|
E-3--3-3-|--------|-1--1-1-|-----------------|-----------------|-----------------|


Chorus

G-----|-----|-----|----------------|
D-----|-----|-----|-1-1-1-1-1-1-1-1| 2X
A-1-1-|-----|-3-3-|----------------|
E-----|-1-1-|-----|----------------|

Post Chorus
[ Tab from: http://www.guitartabs.cc/tabs/a/american_hi_fi/flavor_of_the_weak_btab.html ]
G-----------------|-----------------|-----------------|-----------------|
D-----------------|-----------------|-----------------|-1-1-1-1-1-1-1-1-|
A-1-1-1-1-1-1-1-1-|-----------------|-3-3-3-3-3-3-3-3-|-----------------|
E-----------------|-1-1-1-1-1-1-1-1-|-----------------|-----------------|

Post Chorus (Continued)

G-----------------|-----------------|---------------|---------------|
D-----------------|-----------------|-5-5--5-5--5-5-|-1-1-0-1-1-1-3-|
A-1-1-1-1-1-1-1-1-|-----------------|---------------|---------------|
E-----------------|-1-1-1-1-1-1-1-1-|---------------|---------------|


Verse

Pre-Chorus

Chorus

Post Chorus

Intro X 3

Guitar Solo

G----------------------------------------------------|
D------------------------------------1-1-1-1-1-1-1-1-|
A-1-1--1-1--1-1------------3-3--3-3------------------|
E-----------------1-1--1-1---------------------------|

G-------------------------------------------------|
D------------------------------------1-1--1-1--1--|
A-1-1--1-1--1-1------------3-3--3-3---------------|
E-----------------1-1--1-1------------------------|

Stop for 4 bars while guitar plays stuff, then:

G--------------------|
D----------------1-1-|
A-1-1-------3-3------|
E------1-1-----------|

Then: 

G-----------------|-----------------|-----------------|-----------------|
D-----------------|-----------------|-----------------|-1-1-1-1-1-1-1-1-| 5X
A-1-1-1-1-1-1-1-1-|-----------------|-3-3-3-3-3-3-3-3-|-----------------|
E-----------------|-1-1-1-1-1-1-1-1-|-----------------|-----------------|
Comments