American Hi-fi - Flavor Of The Weak Acoustic Chords & Tabs

 

Flavor Of The Weak Acoustic Chords & Tabs

American Hi-fi Chords & Tabs

Version: 3 Type: Tab 0 ratings
1 star 2 stars 3 stars 4 stars 5 stars
comments

Flavor Of The Weak Acoustic Tab

   
American Hi-Fi
Flavour of the Weak ?Acoustic
Tabbed by Dave Costello (Cozuk2000@yahoo.com)

This song I got off the internet, I?ll try the electric one soon

Capo 1st Fret

Intro:  |  Em7  |  Cadd9  | x4

       G	       D		    Em7
Verse:  She Paints her nails and she don?t know
		     Cadd9
        He?s got her best friend on the phone
	G	         D	         Em7
	She?ll wash her hair, his dirty clothes
	     Cadd9	    Em7
	Are all he gives to her

		     G                  D
Bridge:  And he?s got posters on the wall
	   Asus4		            Cadd9
	Of all the girls he wished she was
		      D
	And he means everything to her

	G	      D
Chorus: Her Boyfriend, He don?t know
	Asus4   Cadd9
	Anything about her
	G		D
	He?s too stoned, Nintendo
	Asus4	    Cadd9
	I wish that I could make her see

Lead over chords

G	          D		            Asus4	 	Cadd9
--------------------------------------------------------------------------------|
--------------------------------------------------------------------------------|
--2-/-4-\-2---0---------2-/-4-\-2---0-------------------------------------------|
----H---P---------0-------H---P------------2------------------------------------|
--------------------------------------------------------------------------------|
--------------------------------------------------------------------------------|
    She?s just the flavour of the weak

G	           D                                Em7			Cadd9
-----------------------------------------------------------------------------------------------------|
-----------------------------------------------------------------------------------------------------|
--2-/-4-\-2---0---------2-/-4-\-2---0----------------------------------------------------------------|
----H---P---------0-------H---P------------2--------------------------------2-/4-\2----0-------------|
-----------------------------------------------------3----3----3----3--------------------------------|
---------------------------------------------------3---3----3----3-----------------------------------|

Verse 2:

Arpeggio bit over verse

---------------------------------8-----8-----8-----8--------|
--------9------11---9---------9-----9-----9-----9-----------|
--10------10-------------10---------------------------------|  Repeats through the verse
------------------------------------------------------------|
------------------------------------------------------------|
------------------------------------------------------------|

G	     D		      Em7
It?s Friday night, she?s all alone
	Cadd9
He?s a million miles away
G		  D	        Em7
She?s dressed to kill, the TV?s on
       Cadd9
He?s connected to the sound


Bridge:
Em7	        G	       D
And he?s got pictures on the wall
    Asus4	                     Cadd9
Of all the girls he?s loved before
	     G
And she knows all his favourite songs

       G	      D
Chorus: Her Boyfriend, He don?t know
	Asus4   Cadd9
	Anything about her
	G		D
	He?s too stoned, Nintendo
	Asus4	    Cadd9
	I wish that I could make her see

Lead over chords

G	          D		            Asus4	 	Cadd9
--------------------------------------------------------------------------------|
--------------------------------------------------------------------------------|
--2-/-4-\-2---0---------2-/-4-\-2---0-------------------------------------------|
----H---P---------0-------H---P------------2------------------------------------|
--------------------------------------------------------------------------------|
--------------------------------------------------------------------------------|
    She?s just the flavour of the weak
[ Tab from: http://www.guitartabs.cc/tabs/a/american_hi_fi/flavor_of_the_weak_acoustic_tab_ver_3.html ]
G	           D                                Em7			Cadd9
-----------------------------------------------------------------------------------------------------|
-----------------------------------------------------------------------------------------------------|
--2-/-4-\-2---0---------2-/-4-\-2---0----------------------------------------------------------------|
----H---P---------0-------H---P------------2---------------------------------------------------------|
-----------------------------------------------------------------------------------------------------|
-----------------------------------------------------------------------------------------------------|
Link: |  Em7  |  Cadd9  |  x3

--11------11---------11----------11----------11--------------------|
------11b------11b--------11b--------11b--------11b-r--------------|
-------------------------------------------------------------------|
-------------------------------------------------------------------|
-------------------------------------------------------------------|
-------------------------------------------------------------------|

-------------------------------------------------------------------|
--9-9--8-8---------------------------------------------------------|
--------------10-10--8-8-------------------------------------------|
------------------------------10--11----10-/-11-\-10?8-\-6---------|
-------------------------------------------H----P------sl----------|
-------------------------------------------------------------------|

-------------------------------------------------------------------|
-------------------------11--11-/-13-\-11--------------------------|
--------8-------8-/-10----------H----P------10--10?8/10\8----------|
---10------10-----H---------------------------------H--P-----------|
-------------------------------------------------------------------|
-------------------------------------------------------------------|

-------------------------------------------------------------------|
-------------------------------------------------------------------|
-------------------------------------------------------------------|
--10--11-------8--10---8---6---------------------------------------|
-------------------------------------------------------------------|
-------------------------------------------------------------------|

Chords:  |  G  |  D  |  Em7  |  Cadd9  |  x2

Verse 3:

Arpeggio bit over verse

----------------------------------8-----8-----8-----8----------|
--------9------11---9---------9-----9-----9-----9--------------|
--10------10-------------10------------------------------------|  Repeats through the verse
---------------------------------------------------------------|
---------------------------------------------------------------|
---------------------------------------------------------------|

G	      D
Her Boyfriend, he don?t know
Asus4	Cadd9	     G
Anything about her, he?s too stoned
D		Asus4
He?s too stoned, He?s too stoned
Cadd9
He?s too stoned

        G            D
Chorus: Her Boyfriend, He don?t know
	Asus4	Cadd9
	Anything about her
	G		D
	He?s too stoned, Nintendo
	Asus4	    Cadd9
	I wish that I could make her see

Lead over chords

G	          D		            Asus4	 	Cadd9
--------------------------------------------------------------------------------|
--------------------------------------------------------------------------------|
--2-/-4-\-2---0---------2-/-4-\-2---0-------------------------------------------|
----H---P---------0-------H---P------------2------------------------------------|
--------------------------------------------------------------------------------|
--------------------------------------------------------------------------------|
    She?s just the flavour of the weak

G	           D                                Asus4		Cadd9
-----------------------------------------------------------------------------------------------------|
-----------------------------------------------------------------------------------------------------|
--2-/-4-\-2---0---------2-/-4-\-2---0----------------------------------------------------------------|
----H---P---------0-------H---P------------2---------------------------------------------------------|
-----------------------------------------------------------------------------------------------------|
-----------------------------------------------------------------------------------------------------|
				     Yeah she?s the flavour of the weak

G	           D                                Asus4		Cadd9
-----------------------------------------------------------------------------------------------------|
-----------------------------------------------------------------------------------------------------|
--2-/-4-\-2---0---------2-/-4-\-2---0----------------------------------------------------------------|
----H---P---------0-------H---P------------2---------------------------------------------------------|
-----------------------------------------------------------------------------------------------------|
-----------------------------------------------------------------------------------------------------|
				     She makes me weak
Comments