American Hi Fi - Bigger Mood Chords & Tabs

 

Bigger Mood Chords & Tabs

American Hi Fi Chords & Tabs

Version: 5 Type: Tab 0 ratings
1 star 2 stars 3 stars 4 stars 5 stars
comments

Bigger Mood Tab

American Hi-Fi
A Bigger Mood

some parts of this song im not sure of especially
the solo so if u figure it out let me know at ILiveBball247@excite.com
sorry for the gay email name i am too lazy to change it


Intro
Guitar 1 (3 times)
E|------------|------------|------------------|
B|------------|------------|------------------|
G|------------|------------|------------------|
D|-5---5---55-|-3---3---33-|-1111111111111111-|
A|-5---5---55-|-3---3---33-|-1111111111111111-|
D|-5---5---55-|-3---3---33-|-1111111111111111-|

Guitar 2 (2 times)
E|------------|------------|------------------|
B|------------|------------|------------------|
G|-55-7-5-7-5-|-33-5-3-5-3-|-11-3-1-3-1-33333-|
D|-55-7-5-7-5-|-33-5-3-5-3-|-11-3-1-3-1-33333-|
A|-55-5-5-5-5-|-33-3-3-3-3-|-11-1-1-1-1-11111-|
D|-55-5-5-5-5-|-33-3-3-3-3-|-11-1-1-1-1-11111-|

Guitar 2 (3rd time)
E|-----------------10h11-10h11-10h11-10h11-10-|
B|--------------------------------------------|
G|-0---0---3--5-------------------------------|
D|--------------------------------------------|
A|--------------------------------------------|
D|--------------------------------------------|
It sounds like he uses an effect here but I cant tell what it is

End on this and let it ring out
E|-------|-------|
B|-------|-------|
G|-------|---7---|
D|---0---|---7---|
A|---0---|---5---|
D|---0---|---0---|
 Guitar 1 Guitar 2

1st Verse (after drum and bass)
E|---------|
B|---------|
G|---7---5-|
D|-7---7---|
A|---------|
D|---------|
   4 times

End on
E|------------|-------------------|
B|------------|-10-------10-------|
G|------------|----10-10----10-10-|
D|-7-77--3-33-|-------------------|
A|-7-77--3-33-|-------------------|
D|-7-77--3-33-|-------------------|
    Guitar 1        Guitar 2

Chorus (4 times)
Guitar 1
E|---------|----------|----------|----------|
B|---------|----------|----------|----------|
G|---------|----------|-3-33-333-|----------|
D|-5-5-555-|-1-11-111-|-3-33-333-|-3-33-333-|
A|-5-5-555-|-1-11-111-|-1-11-333-|-3-33-333-|
D|-5-5-555-|-1-11-111-|----------|-3-33-333-|
[ Tab from: http://www.guitartabs.cc/tabs/a/american_hi_fi/bigger_mood_tab_ver_5.html ]
Guitar 2
E|---------|----------|----------|----------|
B|-8-------|-4--------|-3--------|-6--------|
G|-7-------|-3--------|-3--------|-5--------|
D|-5-------|-1--------|-3--------|-3--------|
A|-5-------|-1--------|-1--------|-3--------|
D|---------|----------|----------|----------|
I?m not sure about the chords or the pattern for guitar 2 but
they sound pretty good just fool around with them

End on this and let it ring out
E|-------|-------|
B|-------|-------|
G|-------|---7---|
D|---0---|---7---|
A|---0---|---5---|
D|---0---|---0---|
 Guitar 1 Guitar 2

2nd Verse
E|----------------|---------|----------|---------|-|
B|----6----6-xxxx-|---------|----------|---------|-|
G|----7----7-xxxx-|---7---5-|----------|---------|-|
D|-77-7-77-7-xxxx-|-7---7---|----------|---------|-|
A|-55---55---xxxx-|---------|----------|---------|-|
D|----------------|---------|----------|---------|-|
     Guitar 1       Guitar 2

Guitar 1 (6 times) then Guitar 2 (4 times) over guitar 1

End on
E|------------|-------------------|
B|------------|-10-------10-------|
G|------------|----10-10----10-10-|
D|-7-77--3-33-|-------------------|
A|-7-77--3-33-|-------------------|
D|-7-77--3-33-|-------------------|
    Guitar 1        Guitar 2

then back to Chorus

then this kickass riff right before the solo
E|-------------------|
B|-------------------|
G|-------------------|
D|-2--22-0-2--22-0-5-|
A|-2--22-0-2--22-0-5-|
D|-2--22-0-2--22-0-5-|
	4 times

the guitar 2 intro is played under the solo but I don?t know the solo

after the solo one guitar plays the chorus with a clean effect I don?t
know what it is and I cant figure out the other guitar part either
then halfway through, the distortion kicks in and they finish the chorus

then the chorus guitar 1 part and the second guitar solos

play this a few times to end the song
E|--------|--------|----------|---------|-|
B|--------|--------|----------|---------|-|
G|--------|-7-77-7-|----------|---------|-|
D|-0-00-0-|-7-77-7-|----------|---------|-|
A|-0-00-0-|-5-55-5-|----------|---------|-|
D|-0-00-0-|--------|----------|---------|-|
  Guitar 1 Guitar 2
Comments