American Hi Fi - Bigger Mood Chords & Tabs

 

Bigger Mood Chords & Tabs

American Hi Fi Chords & Tabs

Version: 4 Type: Tab 0 ratings
1 star 2 stars 3 stars 4 stars 5 stars
comments

Bigger Mood Tab

   
Artist: American Hi-Fi
Song: A Bigger Mood
By: Rudy Cortez(nemesis335142.tx@netzero.net)
This is just a collection of different tabs out for this
song, but I put them together for the whole song.

        Just D-Tune for this song - DADGBE
x - pick scrap
) - bend
~ - vibrate slowly
\ - slide

Intro
 X3 times
E|------------|------------|---------------------------------|
B|------------|------------|---------------------------------|
G|------------|------------|---------------------------------|
D|-5---5---55-|-3---3---33-|-1111111111111111-|then on    0--|
A|-5---5---55-|-3---3---33-|-1111111111111111-|third time 0--|
D|-5---5---55-|-3---3---33-|-1111111111111111-|let ring   0--|

Chorus

E|---------- |--------------------------------------------|
B|---------- |--------------------------------------------|
G|---------- |-----------------------3-3-3-3-3------------|
D|--9-9-7-7- |-5-5-5-5-5--1-1-1-1-1--3-3-3-3-3--3-3-3-3-3-|
A|--9-9-7-7- |-5-5-5-5-5--1-1-1-1-1--1-1-1-1-1--3-3-3-3-3-|
D|--9-9-7-7- |-5-5-5-5-5--1-1-1-1-1-------------3-3-3-3-3-|
play this part
only on first
repeat

Verse 1        Verse 2
[ Tab from: http://www.guitartabs.cc/tabs/a/american_hi_fi/bigger_mood_tab_ver_4.html ]
E|-----------| |-------------------|
B|-----3)-1)-| |-------------------|
G|-------2---| |-------------------|
D|-0-0-------| |----3----3-3333333-|
A|-----------| |-0-0--0-0--3333333-|
D|-----------| |-0-0--0-0--3333333-|

Riff

E|------------------|
B|------------------|
G|---x-----x--------|
D|-2-x-2-2-x-2-5----|
A|-2-x-2-2-x-2-5----|
D|-2---2-2---2-5----|

Solo
I made this myself

E|-------------------------------|
B|-------------------------------|
G|---6-5-6----6-5-6-5-6-5-6)-----|
D|-5--------5----------------5~5-|
A|-------------------------------|
D|-------------------------------|

   middle
E|-------------------------------|
B|-------------------------------|
G|---6-5-6---6-9)/8----9)-8---6)-|
D|-5-------5--------7~------7----|
A|-------------------------------|
D|-------------------------------|
   ending
E|-------------------------------|
B|---8-7-8-7)----8-7-8-7-8-7-----|
G|-7-----------7-------------7~--|
D|-------------------------------|
A|-------------------------------|
D|-------------------------------|

Ending

E|------------------------------|
B|------------------------------|
G|---x-----x-----x---x-----x----|
D|-3-x-3-3-x-3-3-x-3-x-3-3-x-3-3|
A|-3-x-3-3-x-3-3-x-3-x-3-3-x-3-3|
D|-3---3-3---3-3---3---3-3---3-3|
  "Yeah"

Intro
Verse 1
Chorus
Verse 2
Verse 1
Chorus
Riff
Solo
Chorus
Ending
Comments