American Hi Fi - Another Perfect Day Chords & Tabs

 

Another Perfect Day Chords & Tabs

American Hi Fi Chords & Tabs

Version: 8 Type: Tab 0 ratings
1 star 2 stars 3 stars 4 stars 5 stars
comments

Another Perfect Day Tab

b      = full bend
b(1/2) = half bend




Solo(Version 1)

e|-11---7---14----12h13p12h13p12-7---9---9b---9--11h(1/2)--|
B|--------7------------------------------------------------|
G|---------------------------------------------------------| 
D|---------------------------------------------------------|
A|---------------------------------------------------------|
E|---------------------------------------------------------|

e|-11---7---14----12h13p12h13p12-7---9---7---6-7-9-2-------|
B|--------7------------------------------------------------|
G|---------------------------------------------------------|
D|---------------------------------------------------------|
A|---------------------------------------------------------|




Solo(Version 2)
[ Tab from: http://www.guitartabs.cc/tabs/a/american_hi_fi/another_perfect_day_tab_ver_8.html ]
e|-11---------14--12h13p12h13p12-12---14---14b--14--11h(1/2)--|
B|------12----------------------------------------------------|
G|----------11------------------------------------------------| 
D|------------------------------------------------------------|
A|------------------------------------------------------------|
E|------------------------------------------------------------|

e|-11---------14--12h13p12h13p12-12---14---12---11-12-14-11---|
B|------12----------------------------------------------------|
G|----------11------------------------------------------------| 
D|------------------------------------------------------------|
A|------------------------------------------------------------|
E|------------------------------------------------------------|


alexwany@hotmail.com
Comments