American Hi Fi - Another Perfect Day Chords & Tabs

 

Another Perfect Day Chords & Tabs

American Hi Fi Chords & Tabs

Version: 7 Type: Tab 0 ratings
1 star 2 stars 3 stars 4 stars 5 stars
comments

Another Perfect Day Tab

   
Okay, first off, the last tab I saw for this was Shite. The Chords were accurate,
but the guy had NO tabbing Skill. I figured even I could do better, so I did. And
I tweaked the solo a little to add to the sound

Artist: American Hi-fi
Song:   Another Perfect Day
Tabbed By: ME
Tuning: Drop D       D C G F A D

Intro (Acoustic)                      *
D|--0-0-xx-3-3-xx-0-0-xx-3-3-xx-2-2-2-3-2-2-1-1-1-1-1-1-|
A|--1-1-xx-0-0-xx-2-2-xx-0-0-xx-3-3-3-3-3-3-1-1-1-1-1-1-|
F|.-0-0-xx-0-0-xx-2-2-xx-0-0-xx-2-2-2-2-2-2-2-2-2-2-2-2.|
G|.-2-2-xx-0-0-xx-1-1-xx-0-0-xx-0-0-0-0-0-0-3-3-3-3-3-3.|  x2
C|--3-3-xx-2-2-xx-0-0-xx-2-2-xx-x-x-x-x-x-x-3-3-3-3-3-3-|
D|--0-0-xx-3-3-xx-0-0-xx-3-3-xx-x-x-x-x-x-x-1-1-1-1-1-1-|

Verse (Acoustic)
D|--0-0-0-0-0-0-0-0-0--0-0-0-0-0-0-0-0-0--1-1-1-1-1-1-1-1-1--
A|--1-1-1-1-1-1-1-1-1--2-2-2-2-2-2-2-2-2--1-1-1-1-1-1-1-1-1--
F|.-0-0-0-0-0-0-0-0-0--2-2-2-2-2-2-2-2-2--2-2-2-2-2-2-2-2-2--
G|.-2-2-2-2-2-2-2-2-2--1-1-1-1-1-1-1-1-1--3-3-3-3-3-3-3-3-3--
C|--3-3-3-3-3-3-3-3-3--0-0-0-0-0-0-0-0-0--3-3-3-3-3-3-3-3-3--
D|--0-0-0-0-0-0-0-0-0--0-0-0-0-0-0-0-0-0--1-1-1-1-1-1-1-1-1--

D|-3-3-3-3-3-3-3-3-3-|
A|-3-3-3-3-3-3-3-3-3-|
F|-4-4-4-4-4-4-4-4-4.|
G|-5-5-5-5-5-5-5-5-5.|  x2
C|-5-5-5-5-5-5-5-5-5-|
D|-5-5-5-5-5-5-5-5-5-|

Chorus (Acoustic)
D|--0-0-xx-3-3-xx-0-0-xx-3-3-xx-2-2-2-3-2-2-1-1-1-1-1-1-|
A|--1-1-xx-0-0-xx-2-2-xx-0-0-xx-3-3-3-3-3-3-1-1-1-1-1-1-|
F|.-0-0-xx-0-0-xx-2-2-xx-0-0-xx-2-2-2-2-2-2-2-2-2-2-2-2.|  
G|.-2-2-xx-0-0-xx-1-1-xx-0-0-xx-0-0-0-0-0-0-3-3-3-3-3-3.|   x2
C|--3-3-xx-2-2-xx-0-0-xx-2-2-xx-x-x-x-x-x-x-3-3-3-3-3-3-|
D|--0-0-xx-3-3-xx-0-0-xx-3-3-xx-x-x-x-x-x-x-1-1-1-1-1-1-|

Verse (Electric)
D|--------------------------------------------------------
A|--------------------------------------------------------
F|.-5-5-5-5-5-5-5-5-5-------------------------------------
G|.-5-5-5-5-5-5-5-5-5-7-7-7-7-7-7-7-7-7-3-3-3-3-3-3-3-3-3-
C|--3-3-3-3-3-3-3-3-3-7-7-7-7-7-7-7-7-7-3-3-3-3-3-3-3-3-3-
D|--x-x-x-x-x-x-x-x-x-5-5-5-5-5-5-5-5-5-1-1-1-1-1-1-1-1-1-

D|--------------------|
A|--------------------|
F|-------------------.|
G|-5-5-5-5-5-5-5-5-5-.|
C|-5-5-5-5-5-5-5-5-5--|
D|-3-3-3-3-3-3-3-3-3--|
[ Tab from: http://www.guitartabs.cc/tabs/a/american_hi_fi/another_perfect_day_tab_ver_7.html ]
| |Bridge (Acoustic)
|D|-0-0-0-0-0-0-0-0-0--0-0-0-0-0-0-0-0-0--3-3-3-3-3-3-3-3-3
|A|-1-1-1-1-1-1-1-1-1--1-1-1-1-1-1-1-1-1--2-2-2-2-2-2-2-2-2
|F|-2-2-2-2-2-2-2-2-2--0-0-0-0-0-0-0-0-0--3-3-3-3-3-3-3-3-3
|G|-2-2-2-2-2-2-2-2-2--2-2-2-2-2-2-2-2-2--0-0-0-0-0-0-0-0-0
|C|-0-0-0-0-0-0-0-0-0--3-3-3-3-3-3-3-3-3--x-x-x-x-x-x-x-x-x
|D|-0-0-0-0-0-0-0-0-0--0-0-0-0-0-0-0-0-0--x-x-x-x-x-x-x-x-x
| |
|D|-1-1-1-1-1-1-1-1-1~-|
|A|-1-1-1-1-1-1-1-1-1~-|
|F|-2-2-2-2-2-2-2-2-2~-|
|G|-3-3-3-3-3-3-3-3-3~-|
|C|-3-3-3-3-3-3-3-3-3~-|
|D|-0-0-0-0-0-0-0-0-0~-|
| |
| |Bridge (Electric)
|D|--------------------------------------------------------
|A|--------------------------------------------------------
|F|--------------------5-5-5-5-5-5-5-5-5--7-7-7-7-7-7-7-7-7
|G|-7-7-7-7-7-7-7-7-7--5-5-5-5-5-5-5-5-5--7-7-7-7-7-7-7-7-7
|C|-7-7-7-7-7-7-7-7-7--3-3-3-3-3-3-3-3-3--5-5-5-5-5-5-5-5-5
|D|-5-5-5-5-5-5-5-5-5--------------------------------------
| |
|D|--------------------
|A|--------------------
|F|--------------------
|G|-3-3-3-3-3-3-3-3-3~-
|C|-3-3-3-3-3-3-3-3-3~-
|D|-1-1-1-1-1-1-1-1-1~-

Chorus (Acoustic)
D|--0-0-xx-3-3-xx-0-0-xx-3-3-xx-2-2-2-3-2-2-1-1-1-1-1-1-|
A|--1-1-xx-0-0-xx-2-2-xx-0-0-xx-3-3-3-3-3-3-1-1-1-1-1-1-|
F|.-0-0-xx-0-0-xx-2-2-xx-0-0-xx-2-2-2-2-2-2-2-2-2-2-2-2.|  
G|.-2-2-xx-0-0-xx-1-1-xx-0-0-xx-0-0-0-0-0-0-3-3-3-3-3-3.|   x2
C|--3-3-xx-2-2-xx-0-0-xx-2-2-xx-x-x-x-x-x-x-3-3-3-3-3-3-|
D|--0-0-xx-3-3-xx-0-0-xx-3-3-xx-x-x-x-x-x-x-1-1-1-1-1-1-|

Solo

D|-12-8---15-12h13p12h13p12-------12-------12---12
A|------8-------------------13-15----13-15----13--
F|------------------------------------------------
G|------------------------------------------------
C|------------------------------------------------
D|------------------------------------------------

D|-12-8---15-12h13p12h13p12----------12----------------15-|
A|------8-------------------12h13-15----13-15-13-12-------|
F|--------------------------------------------------12----|
G|--------------------------------------------------------|
C|--------------------------------------------------------|
D|--------------------------------------------------------|

| |Bridge (Acoustic)
|D|-0-0-0-0-0-0-0-0-0--0-0-0-0-0-0-0-0-0--3-3-3-3-3-3-3-3-3
|A|-1-1-1-1-1-1-1-1-1--1-1-1-1-1-1-1-1-1--2-2-2-2-2-2-2-2-2
|F|-2-2-2-2-2-2-2-2-2--0-0-0-0-0-0-0-0-0--3-3-3-3-3-3-3-3-3
|G|-2-2-2-2-2-2-2-2-2--2-2-2-2-2-2-2-2-2--0-0-0-0-0-0-0-0-0
|C|-0-0-0-0-0-0-0-0-0--3-3-3-3-3-3-3-3-3--x-x-x-x-x-x-x-x-x
|D|-0-0-0-0-0-0-0-0-0--0-0-0-0-0-0-0-0-0--x-x-x-x-x-x-x-x-x
| |
|D|-1-1-1-1-1-1-1-1-1~-|
|A|-1-1-1-1-1-1-1-1-1~-|
|F|-2-2-2-2-2-2-2-2-2~-|
|G|-3-3-3-3-3-3-3-3-3~-|
|C|-3-3-3-3-3-3-3-3-3~-|
|D|-0-0-0-0-0-0-0-0-0~-|
| |
| |Bridge (Electric)
|D|--------------------------------------------------------
|A|--------------------------------------------------------
|F|--------------------5-5-5-5-5-5-5-5-5--7-7-7-7-7-7-7-7-7
|G|-7-7-7-7-7-7-7-7-7--5-5-5-5-5-5-5-5-5--7-7-7-7-7-7-7-7-7
|C|-7-7-7-7-7-7-7-7-7--3-3-3-3-3-3-3-3-3--5-5-5-5-5-5-5-5-5
|D|-5-5-5-5-5-5-5-5-5--------------------------------------
| |
|D|--------------------
|A|--------------------
|F|--------------------
|G|-3-3-3-3-3-3-3-3-3~-
|C|-3-3-3-3-3-3-3-3-3~-
|D|-1-1-1-1-1-1-1-1-1~-

Chorus (Acoustic)
D|--0-0-xx-3-3-xx-0-0-xx-3-3-xx-2-2-2-3-2-2-1-1-1-1-1-1-|
A|--1-1-xx-0-0-xx-2-2-xx-0-0-xx-3-3-3-3-3-3-1-1-1-1-1-1-|
F|.-0-0-xx-0-0-xx-2-2-xx-0-0-xx-2-2-2-2-2-2-2-2-2-2-2-2.|  
G|.-2-2-xx-0-0-xx-1-1-xx-0-0-xx-0-0-0-0-0-0-3-3-3-3-3-3.|   x2
C|--3-3-xx-2-2-xx-0-0-xx-2-2-xx-x-x-x-x-x-x-3-3-3-3-3-3-|
D|--0-0-xx-3-3-xx-0-0-xx-3-3-xx-x-x-x-x-x-x-1-1-1-1-1-1-|


That's it, any Comments, or corrections, email me at fluffymcgill@hotmail.com,
tho I'm pretty sure this is 100% right
Comments