American Hi Fi - Another Perfect Day Chords & Tabs

 

Another Perfect Day Chords & Tabs

American Hi Fi Chords & Tabs

Version: 4 Type: Tab 0 ratings
1 star 2 stars 3 stars 4 stars 5 stars
comments

Another Perfect Day Tab

   
The first "G" of the intro and chorus is played 320030. The second "G" 
is 320030, and it actually does make a difference. The tuning in this 
song is 1/2 step down (drop D). It all goes like this: This is a fairly 
easy song and wasn't hard to figure out. Just listen to the cd to get 
the rythem. I hope this helps.

        C         G         Am        G         D         F 
Eb:-----X---------3---------0---------3---------5---------1------------|
Bb:-----3---------2---------0---------2---------5---------3------------|
Gb:-----2---------0---------2---------0---------7---------3------------|
Db:-----0---------0---------2---------0---------7---------2------------|
Ab:-----1---------3---------1---------0---------5---------1------------|
Eb:-----0---------0---------0---------3---------5---------1------------|

The "G" you use in the verse is barred so just slide your "F" up 2 
frets. When it switches to electric guitar you start using power 
chords.

Intro:
C G Am G D F (x2)

Verse: (acoustic)

C Am F G (x2)

Chorus: (acoustic)
[ Tab from: http://www.guitartabs.cc/tabs/a/american_hi_fi/another_perfect_day_tab_ver_4.html ]
C G Am G D F (x2)

Verse: (electric for the rest of the song)

C5 A5 F5 G5 (x2)
   
Bridge:

A5 C5 D5 F5
  
(Chorus)


Solo: (backed by verse chords)

Eb:--------------12-8---15-12h13p12h13p12-------12----12---------------|
Bb:-------------------8-------------------13-15----15------------------|
Gb:--------------------------------------------------------------------|
Db:--------------------------------------------------------------------|
Ab:--------------------------------------------------------------------|
Eb:--------------------------------------------------------------------|

Eb:--------------12-8---15-12h13p12h13p12-------------------15---------|
Bb:-------------------8-------------------13-15-12-13-15---------------|
Gb:------------------------------------------------------12------------|
Db:--------------------------------------------------------------------|
Ab:--------------------------------------------------------------------|
Eb:--------------------------------------------------------------------|


(Bridge)

(Chorus)


Solo (backed by verse chords)


End on C5
Comments