American Head Charge - Seamless Chords & Tabs

 

Seamless Chords & Tabs

American Head Charge Chords & Tabs

Version: 2 Type: Tab 2 ratings
1 star 2 stars 3 stars 4 stars 5 stars
comments

Seamless Tab

Song Title: seamless 
Artist: american head charge 
Submitted by: mike downes 

american head charge uses 7 string guitars
thier is only 3 riffs through out the song
[ Tab from: http://www.guitartabs.cc/tabs/a/american_head_charge/seamless_tab_ver_2.html ]
  into/verse
E|----------------------------------------------------------------|
B|----------------------------------------------------------------|
G|----------------------------------------------------------------|
D|----------------------------------------------------------------|
A|-------------------------------------------------------------7--|
E|-6-6-6-6-6-6---6-6-6-6-6-6---7-6-6-6-6-6-6----6-6-6-6-6-6----5--|
B|-4-4-4-4-4-4---4-4-4-4-4-4---5-4-4-4-4-4-4----4-4-4-4-4-4-------|
PM   . . . .       . . . .     .   . . . .        . . . .

  chorus
E|---------|---------------|
B|---------|---------------|
G|---------|---------------|
D|---------|---------------|
A|---------|---------------|
E|-7--5--4-|-8--4/5\4/5--8-|
B|-5--3--2-|-6--2/3\2/3--6-|
 PM. .  .

this song is wicked easy and fun to play. if u have some questions 
i got some answers so e-mail me at XGuitarMasterX@aol.com

Comments