American Head Charge - Just So You Know Chords & Tabs

 

Just So You Know Chords & Tabs

American Head Charge Chords & Tabs

Version: 3 Type: Tab 0 ratings
1 star 2 stars 3 stars 4 stars 5 stars
comments

Just So You Know Tab

-------------------------------------------------------------------------------
		Just So You Know - American Head Charge
-------------------------------------------------------------------------------

By: Jack Nelson

    Play order:
    Intro
    Verse (no guitar part)
    Bridge 1
    Chorus
    Post chorus riffy bit
    Verse (no guitar part)
    Bridge 1
    Bridge 2
    Chorus
    Interlude (no guitar)
    Bridge 3 (x4)
    Chorus

  This song may look kinda intimidating with its tuning and length but its 
  pretty simple and really fun to play, just listen to the song to work out 
  the wierd timing and go for it! (You might think ive got the chorus wrong 
  but its the bass that plays the main tune, the chorus is actually boring 
  guitar wise, so if someone wants to write a bass part for it id be grateful)
    


    Intro

C |--------------------------------------------------------------------------|
G |--------------------------------------------------------------------------|
D#|--------------------------------------------------------------------------|
A#|-0h2-2--2-2-3-0-3--6-6--6--6-7-7-7--0h2-2--2-2-3-0-3--6-6--6--6-7-7-7-----|
F |-0h2-2--2-2-3-0-3--6-6--6--6-7-7-7--0h2-2--2-2-3-0-3--6-6--6--6-7-7-7-----|
A#|-0h2-2--2-2-3-0-3--6-6--6--6-7-7-7--0h2-2--2-2-3-0-3--6-6--6--6-7-7-7-----|

C |--------------------------------------------------------------------------|
G |--------------------------------------------------------------------------|
D#|--------------------------------------------------------------------------|
A#|-0h2-2--2-2-3-0-3--6-6--6--6-7-7-7--0h2-2--2-2-3-0-3--7-7--7--7-6-6-6-----|
F |-0h2-2--2-2-3-0-3--6-6--6--6-7-7-7--0h2-2--2-2-3-0-3--7-7--7--7-6-6-6-----|
A#|-0h2-2--2-2-3-0-3--6-6--6--6-7-7-7--0h2-2--2-2-3-0-3--7-7--7--7-6-6-6-----|

    Bridge 1 (I wish your body was not so warm to me)

C |--------------------------------------------------------------------------|
G |--------------------------------------------------------------------------|
D#|--------------------------------------------------------------------------|
A#|-0h2-2--2-2-3-0-3--6-6--6--6-7-7-7--0h2-2--2-2-3-0-3--6-6--6--6-7-7-7-----|
F |-0h2-2--2-2-3-0-3--6-6--6--6-7-7-7--0h2-2--2-2-3-0-3--6-6--6--6-7-7-7-----|
A#|-0h2-2--2-2-3-0-3--6-6--6--6-7-7-7--0h2-2--2-2-3-0-3--6-6--6--6-7-7-7-----|
[ Tab from: http://www.guitartabs.cc/tabs/a/american_head_charge/just_so_you_know_tab_ver_3.html ]
C |--------------------------------------------------------------------------|
G |--------------------------------------------------------------------------|
D#|--------------------------------------------------------------------------|
A#|-0h2-2--2-2-3-0-3--6-6--6--6-7-7-7--0h2-2--2-2-3-0-3--7-7--7--7-6---------|
F |-0h2-2--2-2-3-0-3--6-6--6--6-7-7-7--0h2-2--2-2-3-0-3--7-7--7--7-6---------|
A#|-0h2-2--2-2-3-0-3--6-6--6--6-7-7-7--0h2-2--2-2-3-0-3--7-7--7--7-6---------|

    Chorus (And all it was was something beautiful)

C |--------------------------------------------------------------------------|
G |--------------------------------------------------------------------------|
D#|--------------------------------------------------------------------------|
A#|-7/9999999999999999999999999999999999999999999999999999999999999999-------|
F |-7/9999999999999999999999999999999999999999999999999999999999999999-------|
A#|-7/9999999999999999999999999999999999999999999999999999999999999999-------|

    Post chorus riffy bit

C |--------------------------------------------------------------------------|
G |--------------------------------------------------------------------------|
D#|--------------------------------------------------------------------------|
A#|-0h2-2--2-2-3-0-3--6-6--6--6-7-7-7--0h2-2--2-2-3-0-3--7-7--7--7-6---------|
F |-0h2-2--2-2-3-0-3--6-6--6--6-7-7-7--0h2-2--2-2-3-0-3--7-7--7--7-6---------|
A#|-0h2-2--2-2-3-0-3--6-6--6--6-7-7-7--0h2-2--2-2-3-0-3--7-7--7--7-6---------|

    Bridge 2 (Screaming bit before the second chorus)

C |--------------------------------------------------------------------------|
G |--------------------------------------------------------------------------|
D#|--------------------------------------------------------------------------|
A#|-5--0-1-3-0/5-3-8\7-7-7--5-0-1-3-0/5-3-8\7-7-7--5--0-1-3-0/5-3-8\7-7-7----|
F |-5--0-1-3-0/5-3-8\7-7-7--5-0-1-3-0/5-3-8\7-7-7--5--0-1-3-0/5-3-8\7-7-7----|
A#|-5--0-1-3-0/5-3-8\7-7-7--5-0-1-3-0/5-3-8\7-7-7--5--0-1-3-0/5-3-8\7-7-7----|

C |--------------------------------------------------------------------------|
G |--------------------------------------------------------------------------|
D#|--------------------------------------------------------------------------|
A#|-5--0-1-3-0/5-3-8\7-7-7---------------------------------------------------|
F |-5--0-1-3-0/5-3-8\7-7-7---------------------------------------------------|
A#|-5--0-1-3-0/5-3-8\7-7-7---------------------------------------------------|

    Bridge 3 (Screaming bit before the third chorus)

C |--------------------------------------------------------------------------|
G |--------------------------------------------------------------------------|
D#|--------------------------------------------------------------------------|
A#|-2-2--2--2-3-0-3-2-2--2--2-3-0-3-2-2--2--2-3-0-3-2-2--2--2-3-0-3----------|
F |-2-2--2--2-3-0-3-2-2--2--2-3-0-3-2-2--2--2-3-0-3-2-2--2--2-3-0-3----------|
A#|-2-2--2--2-3-0-3-2-2--2--2-3-0-3-2-2--2--2-3-0-3-2-2--2--2-3-0-3----------|

===============================================================================
Comments