American Football - Never Meant Chords & Tabs

 

Never Meant Chords & Tabs

American Football Chords & Tabs

Version: 3 Type: Tab 0 ratings
1 star 2 stars 3 stars 4 stars 5 stars
comments

Never Meant Tab

American Football
"Never Meant"
S/T
Tabbed by: Andrew D (fishingthesky00@sbcglobal.net)

Guitar 1: FACGCE
Guitar 2: DAEAC#D capo 3rd

Part 1
Guitar 1
F--------------------------------------------|
A--------------------------------------------|
C-0------------------------------------------|
G--------0-2----4----5s7----9-----10s12------|
C---4p2p0---0-0--0-0----0-0--0-0-------0-0---|
E------------0----0------0----0---------0----|

Guitar 2
D --0---------2-------4------------2---------|
A -------------------------------------------|
E -----------------------------0-------------|
A --------0-------2----------0---------------|
C#-------0------3-----------0----------------|
D ------2-----------------0------------------|

Part2
Guitar 2
D -------------------------------------------|
A -------------------------------------------|
E -2-------2-------2------2------------------|
A ---0--0----0--0----0--0---0--0-------------|
C#--0--0----0--0----0--0---0--0--------------|
D ----0-------0-------0------0---------------|

D -------------------------------------------|
A -------------------------------------------|
E -0-------0-------0------0------------------|
A ---0--0----0--0----0--0---0--0-------------|
C#--0--0----0--0----0--0---0--0--------------|
D ----0-------0-------0------0---------------|
[ Tab from: http://www.guitartabs.cc/tabs/a/american_football/never_meant_tab_ver_3.html ]
D -0-----------------------------------------|
A -------------------------------------------|
E ---0---------------------------------------|
A ----0------0-------------------------------|
C#------0--0---------------------------------|
D --------0----------------------------------|

Part 3
Guitar 1
F--------------------------------------------|
A--------------------------------------------|
C-12-----------------------------------------|
G---12--12--9h10p9h10p9s5--------------------|
C--------------------------------------------|
E--------------------------------------------|

Guitar 2
D -----------0-----------4-------------------|
A -0-----------------------------------------|
E ---0--0------0--0-------0------------------|
A -----4-4-2-----4-4-2------0----0-----------|
C#---------------------------0--0------------|
D ----------------------------0--------------|

Part 4
Guitar 1
F-------------------------------------------|
A-------------------------------------------|
C-------------------------------------------|
G-17s14s12s9s7s5----------------------------|
C-------------------------------------------|
E-------------------------------------------|

Guitar 2
D ---------------------------------4---------|
A -0-------2---------5------4----------------|
E ---5--5----2--2-----5--5----5-5---0------0-|
A -----0-------0-------0-------0-----0----0--|
C#------------------------------------0-0----|
D -------------------------------------0-----|
Comments