American Football - Honestly Chords & Tabs

 

Honestly Chords & Tabs

American Football Chords & Tabs

Version: 1 Type: Tab 0 ratings
1 star 2 stars 3 stars 4 stars 5 stars
comments

Honestly Tab

American Football - Honestly?
Andrew D. - owls4464@hotmail.com

DADAC#E Tuning
(p=pull b=bend s=slide)

Guitar 1
E --------------------------------------------|
C#--------------------------------------------|
A --------------------------------------------|
D --------------------------------------------|
A ----7--5--4-----0--2--4---------------------|
D -0-----------4------------------------------|

E --------------------------------------------|
C#--------------------------------------------|
A --------------------------------------------|
D --------------------------------------------|
A ----77-55-44----00-22-44--------------------|
D -00----------44-----------------------------|

E --------------------------------------------|
C#--------------------------------------------|
A --------------------------------------------|
D --------------------------------------------|
A ----00-22-44----00-22-44--------------------|
D -22----------44-----------------------------|


Guitar 2
E -2-0----------------------------------------|
C#--------------------------------------------|
A ------4--2--4--2--0--2----------------------|
D --------------------------------------------|
A --------------------------------------------|
D --------------------------------------------|

E -2-0----------------------------------------|
C#--------------------------------------------|
A ------4--2---4p2p0--4p2p0-------------------|
D --------------------------------------------|
A --------------------------------------------|
D --------------------------------------------|

[ Tab from: http://www.guitartabs.cc/tabs/a/american_football/honestly_tab.html ]
E -2-0-------------------------------------0--|
C#---------------3----------------------------|
A ------4--2--4-----4-------------------0-----|
D --------------------------------------------|
A --------------------------------------------|
D --------------------------------------------|
                        (Play 2nd time through)


E --------------------------------------------|
C#------------3-------------------------------|
A --0---------4-------------------------------|
D --0---------0-------------------------------|
A --------------------------------------------|
D --------------------------------------------|

Guitar 1 (Distortion on, let all
strings ring as long as possible while playing solo part)
E -0------------------------------------------|
C#-0------------------------------------------|
A -0------------------------------------------|
D -0------------------------------------------|
A -0------------------------------------------|
D -0------------------------------------------|

E --------------------------------------------|
C#--------------------------------------------|
A -12bs---7-----------2-----4--0-----7--------|
D -------------------------------0------------|
A --------------------------------------------|
D --------------------------------------------|
(This comes in around 4:56, these are the individual frets to hit)


E -19--17--16--14-----------------------------|
C#-----------------12-------------------------|
A --------------------------------------------|
D --------------------------------------------|
A --------------------------------------------|
D --------------------------------------------|
Guitar 2 (Clean)

E -0---0---0---0---0---0---0---0---0---0---0--|
C#-5s--3s--1s--3s--5s--3s--1s--3s--5s--3s--1s-|
A -0---0---0---0---0---0---0---0---0---0---0--|
D -0---0---0---0---0---0---0---0---0---0---0--|
A --------------------------------------------|
D --------------------------------------------|


E -0---0---0---0---0--------------------------|
C#-3s--5s--3s--1p--0--------------------------|
A -0---0---0---0---0--------------------------|
D -0---0---0---0---0--------------------------|
A --------------------------------------------|
D --------------------------------------------|
Comments