America - Ventura Highway Chords & Tabs

 

Ventura Highway Chords & Tabs

America Chords & Tabs

Version: 4 Type: Tab 0 ratings
1 star 2 stars 3 stars 4 stars 5 stars
comments

Ventura Highway Tab

   
"Ventura Highway" by America

tabbed by: Budoy 

Intro:

|--5h7p5--------------------|
|-------7--5h7p5-----5---7--|
|-----------------7---------|
|---------------------------|
|---------------------------|
|---------------------------|
[ Tab from: http://www.guitartabs.cc/tabs/a/america/ventura_highway_tab_ver_4.html ]
|--5h7p5--------------------|
|-------7--5h7p5------------|
|-----------------7--6---4--|
|---------------------------|
|---------------------------|
|---------------------------|


Strumming in background:
     DM7    G
|-----5-----3--|
|-----7-----3--|
|-----6-----4--|
|-----7-----5--|
|-----5-----5--|
|-----0-----3--|

Bridge/Chorus:
     G     F#m
|----3------2--|
|----3------2--|
|----4------2--|
|----5------4--|
|----5------4--|
|----3------2--|
Comments