America - Ventura Highway Chords & Tabs

 

Ventura Highway Chords & Tabs

America Chords & Tabs

Version: 3 Type: Tab 0 ratings
1 star 2 stars 3 stars 4 stars 5 stars
comments

Ventura Highway Tab

Tabbed by: This One Girl
AIM: ShowMeYoTittays

America - "Ventura Highway"


INTRO:
|-------------------------------2-----|
|--10h12p10--7---5h7p5--2--2h3----3---|
|--11h12p11--7---6h7p6--2--2h4--------|
|-------------------------------------|
|-------------------------------------|
|-------------------------------------|
[ Tab from: http://www.guitartabs.cc/tabs/a/america/ventura_highway_tab_ver_3.html ]
|-------------------------------2-----|
|--10h12p10--7---5h7p5--2--2h3----2---|
|--11h12p11--7---6h7p6--2--2h4--------|
|-------------------------------------|
|-------------------------------------|
|-------------------------------------|


CHORDS FOR THE STRUMMING RIFF IN THE BACKGROUND:
|----------|
|--7---5---|
|--6---4---|
|--7---5---|
|--5---x---|
|----------|

As you play these chords, simply follow the rhythm and style the way it's played in the song.
Comments