America - Indian Summer Chords & Tabs

 

America Chords & Tabs

Version: 1 Type: Tab 0 ratings
1 star 2 stars 3 stars 4 stars 5 stars
comments

Indian Summer Tab

   
------------------------
INDIAN SUMMER BY AMERICA
------------------------

Tabbed by: moe
Date: January 05, 2010
Album: Here And Now

Tuning: Half-step down (Eb - Ab - Db - Gb - Bb - Eb)
Chords you need to play this song:

   Amaj7 Dmaj7  Bm     E
eb |-0-| |-2-| |-2-| |-0-|
Bb |-2-| |-2-| |-3-| |-0-|
Gb |-1-| |-2-| |-4-| |-1-|
Db |-2-| |-0-| |-4-| |-2-|
Ab |-0-| |-x-| |-2-| |-2-|
Eb |-x-| |-x-| |-x-| |-0-|


Intro: Amaj7 - Dmaj7 (2x)


Verse 1:

Amaj7                      Dmaj7
The sand, feel the waves between your toes
Amaj7                    Dmaj7
Can you feel the way the old wind blows
             Bm
From one to another
           E
Here to discover


Chorus:

       Amaj7   Dmaj7
Indian summer
       Amaj7   Dmaj7
Indian summer


Verse 2:

Honeysuckle vines outside the door
Dandelion wine and so much more
We can discover
Into each other


Chorus:

Indian summer
Indian summer
Indian summer
Indian summer


Solo:

   Amaj7                       Amaj7                       Dmaj7      Dmaj7
                                                                       
eb|-12p10-9h10p9------9h10p9~-|-12p10-9h10p9------9h10p9~-|-9h10-----|-9-----|
Bb|--------------9h11---------|--------------9h11---------|------12~-|---10~-|
Gb|---------------------------|---------------------------|----------|-------|
Db|---------------------------|---------------------------|----------|-------|
Ab|---------------------------|---------------------------|----------|-------|
Eb|---------------------------|---------------------------|----------|-------|
[ Tab from: http://www.guitartabs.cc/tabs/a/america/indian_summer_tab.html ]
   Amaj7                       Amaj7                       Dmaj7      Dmaj7
                                                                       
eb|-12p10-9h10p9------9h10p9~-|-12p10-9h10p9------9h10p9~-|-9h10-----|-9-----
Bb|--------------9h11---------|--------------9h11---------|------12~-|---10~-
Gb|---------------------------|---------------------------|----------|-------
Db|---------------------------|---------------------------|----------|-------
Ab|---------------------------|---------------------------|----------|-------
Eb|---------------------------|---------------------------|----------|-------

             Bm                     Bm                 E
                                                    
eb ---------|----------------------|------------------|----------------------|
Bb ------10-|-10/12-12-12-12-10-12-|-12/14~-12-10-12~-|-10h12-12-12-12-10-12-|
Gb -9h11----|----------------------|------------------|----------------------|
Db ---------|----------------------|------------------|----------------------|
Ab ---------|----------------------|------------------|----------------------|
Eb ---------|----------------------|------------------|----------------------|

   E

eb|-------12-12h14-12~-|
Bb|-12/14--------------|
Gb|--------------------|
Db|--------------------|
Ab|--------------------|
Eb|--------------------|


Verse 3:

Night fall, fireflies light up the lawn
Pink skies mirrored on the sea at dawn
From one to another
Here to discover


Chorus:

Indian summer
Indian summer
Indian summer
Indian summer


Outro:

   Amaj7                       Dmaj7
                               
eb|-12p10-9h10p9------9h10p9~-|-12p10-9h10p9------9h10p9~-|
Bb|--------------9h11---------|--------------9h11---------|
Gb|---------------------------|---------------------------|
Db|---------------------------|---------------------------|
Ab|---------------------------|---------------------------|
Eb|---------------------------|---------------------------|


That's it. Have fun!
Comments