America - All My Life Chords & Tabs

 

America Chords & Tabs

Version: 2 Type: Tab 0 ratings
1 star 2 stars 3 stars 4 stars 5 stars
comments

All My Life Tab

   
All My Life

	E		F#m
All my life, without a doubt I gave you
	Am7		Am			Am7
All my life, now and forever ti’ll the day I die,
Abm		F#m	B
You and I will share.

	E		F#m
All the things, this changing world can offer
	Am7		Am			Am7
And so I sing I’d be happy, just to stay this this way 
Abm		F#m	B
Spend each day with you

Chorus:
Am7			B			
There was a time , that I just thought that 
Abm			    C#m7
I would lose my mind, you came along and the 
F#m			B	       E   E7
sun did shine, I started on my way
Am7	       B
I do recall that every moment spend 
Abm		C#m7
was wasted time, but then I chose to lay 
   F#m	
it on the line.
B   				  D
I would have passed away, I would have passed away….
A			
I would have passed away….


Adlib: E-Bm7-A-Am-Abm7-C#m7-F#m-B

e|-----------------------------------------------------l
B|-----------------------------------------------------l
G|--1--1-1---2---4----7---7--6---6--6---8--8/9--9------l
D|-----------------------------------------------------l
A|-----------------------------------------------------l
E|-----------------------------------------------------l


[ Tab from: http://www.guitartabs.cc/tabs/a/america/all_my_life_tab_ver_2.html ]
e|----------------------------------|
B|----------------------------------|
G|--------------6----8—8/9----------|
D|----9--9-9------------------------|
A|----------------------------------|
E|----------------------------------|

e|----------------------------------|
B|----------------------------------|
G|----------------------------------|
D|----9---6--7--9-9-11--------------|
A|----------------------------------|
E|----------------------------------|

e|----------------------------------|
B|----------------------------------|
G|----------------------------------|
D|---7--4--6—6/7---4----------------|
A|----------------------------------|
E|----------------------------------|


E		F#m			   Am7
All my life, I will carry you though all my life 
Am				  Am7
Between each shower of the passing days 
Abm	  F#m		B
I will stay with you.

Chorus 2:
Am7		        B
There was a time , that I just thought that 
	   Abm		    C#m7
I would lose my mind, you came along and the 
	F#m	   B		  E   E7
sun did shine, I started on my way
Am7		B			Abm
I do recall that every moment spend 
		      C#m7
was wasted time, but then I chose to lay 
F#m			B		D
it on the line. I want this all my life.
I want this all my life.
A			D
I want this all my life……
I want this all my life……
A			E
I want this all my life……

Any comments or correction/sugestion you can e-mail me at
luds_20012000@yahoo.com or ludz_crash@yahoo.com
hope you like my work..(",)
Comments