America - All My Life Chords & Tabs

 

America Chords & Tabs

Version: 1 Type: Tab 0 ratings
1 star 2 stars 3 stars 4 stars 5 stars
comments

All My Life Tab

                         All my Life 

Ginawa ko ito para sa inyong lahat this is for u

----------------------------------------------------------------------
-------------------0-0-----------------------------------------------1-
-----------------1-----1---1----------2--4-2-1---------------------2---
--------------2----------2---------4-----------4-2---2-2-/-4-2---2---------------
---2--0-------------------------4------------------0-----------0-----0------
--------2--0------------------------------------------------------------
[ Tab from: http://www.guitartabs.cc/tabs/a/america/all_my_life_tab.html ]
----------------------------------------------------------------------
----------------------------------------------------------------------
---2-2/4-2-1---------6-6-6-4-4--------------------------------------------------
-2-----------4-2-2/4-----------6--4-------------------------------------------
----------------------------------------------------------------------
----------------------------------------------------------------------

I hope u can get it

Hi nga pala sa mga classmate ko sa STI cubao sa mga E-Commerce and 
sa mga taga flora ylagan high school sa mga kabatch ko sa CAT si
 S4 ito porky 
Good Luck sa inyong lahat
 kitakits nalang
Comments