America - A Horse With No Name Chords & Tabs

 

America Chords & Tabs

Version: 1 Type: Bass Tab 0 ratings
1 star 2 stars 3 stars 4 stars 5 stars
comments

A Horse With No Name Bass Tab

   
-------------------------------------------------------------------------------
		        Horse with no name - America
-------------------------------------------------------------------------------

Tabbed By : Domi166
e-mail: 

Tuning: e A D G
 
				Intro / Fill
G|-----------------------------------------------------7--9-9-9-7------|
D|----------------------------------------------------------------9----|
A|---------------------------------------------------------------------|
E|---------------------------------------------------------------------|

				Verse/Chorus

G|---------------------------------------------------------------------|
D|--2---2--2--X--X---2--2--X---4--4--------------0---------------------|
A|-----------------------------------2----0----2-----------------------|
E|---------------------------------------------------------------------|

				/w Voice-melody 
G|---------------------------------------------------------|
D|----9-9-99-99-9--7--4-44-4---4-7---9-9-99-99-9--7--4-44-4| (optinal part. In the song plays
A|---------------------------------------------------------|  the bass the verse/chorus part)
E|---------------------------------------------------------|
[ Tab from: http://www.guitartabs.cc/tabs/a/america/a_horse_with_no_name_btab.html ]
"Ive been through the desert on a horse with no name
 It felt good to be out of the rain
 In the desert you can remember your name
 cause there aint no one for to give you no pain" <<----<----<----<----<----<----<----<----|
  [[you can also play this in thw "la la" part]]                                           |
                                                                                           | 
                                                                                           ^
                             Guitar Solo Bass intro                                       / \
G|---------------------------------------------------------|                               |
D|------------------7-9(9)~~-------------------------------|                               |
A|----------5-7/-/9----------------------------------------|                               |
E|-----5-7-------------------------------------------------|                               ^
       I I  I I   I I |let ring...|                                                       / \
         I    I     I                                                                      |
                                                                                           |
			Guitar SOLO                                                        |
G|----------------2|---2---2----------|                                                    |
D|--2-----x-2------|----------x--2----|                                                    |
A|-----------------|------------------|                                                    |
E|-----------------|------------------|                                                    |
                                                                                           |
------------------------                                                                   |
                                                                                           |
                                                                                           |
-at first play nothing (star after they sing: "There was sand and hills and rings")        ^
-then start with the "INTRO/FILL" part                                                    / \
-Then play "Verse/Chorus"                                                                  |
-you can play "/w voice melody" part, play this to the text-->--->--->---->---->---->--->--|

-if you dont play "/w voice melody" part play "verse/chorus" but end it with the "intro/fill" part
-then Play "guitar Solo bass intro" 
-Guitar solo
-anfter that play "verse/chorus" part again
-and at least voice meldoy or....


------------------------

| /  slide up
| \  slide down
| h  hammer-on
| p  pull-off
| ~  vibrato
| +  harmonic
| x  Mute note
===============================================================================
Comments