Amen - Under The Robe Chords & Tabs

 

Under The Robe Chords & Tabs

Amen Chords & Tabs

Version: 2 Type: Tab 0 ratings
1 star 2 stars 3 stars 4 stars 5 stars
comments

Under The Robe Tab

This is for Under the Robe by Amen, ont hte album 'We have come for
 your parents' This is a great Album, and a great track.
By Sharlene 'Switch' , queenswitch666@aol.com,
 http://www.angelfire.com/freak/colicab
http://groups.msn.com/undertherobe

drop d tunig as most Amen songs.

The intro riff actually goes like this

------------------------------------------------
------------------------------------------------
------------------------------------------------
------------------------------------------------
------------------------------------------------
0-0-13-0-8-0-0-7-0-5-0-3-0-2-2-2----------------

------------------------------------------------
------------------------------------------------
------------------------------------------------
------------------------------------------------
------------------------------------------------
0-0-13-0-8-0-0-7-0-5-12---12-12-12

u will get it when u hear it.

the pre chorus thingy goes like this:

-----------------------------------------------
-----------------------------------------------
------------------------------------------------
-3-3-3-6-6-6-10-10-10-13-13-13-x-x-x----------
-3-3-3-6-6-6-10-10-10-13-13-13-x-x-x-----------
-3-3-3-6-6-6-10-10-10-13-13-13-x-x-x---------
===========Amen - Under The Robe
Tabbed By: Liam "Rasha" Ivers


We have come for your Parents

Tuning:Droped D tuning-DADGBE
[ Tab from: http://www.guitartabs.cc/tabs/a/amen/under_the_robe_tab_ver_2.html ]
Distortion.
INTRO RIFF!
E-------------------------------------------------------------------
B-------------------------------------------------------------------
G-------------------------------------------------------------------
D-------------------------------------------------------------------
A-------------------------------------------------------------------
D--0-0-7-0-8-0-0-7-0-0-5-0-3-2-2------------------------------------

MAIN RIFF!
E--------------------------------------------------------------------
B--------------------------------------------------------------------
G--------------------------------------------------------------------
D--0-0-7-0-8-0-0-7-0-0-5-0-3-2-2-------------------------------------
A--0-0-7-0-8-0-0-7-0-0-5-0-3-2-2-------------------------------------
D--0-0-7-0-8-0-0-7-0-0-5-0-3-2-2-------------------------------------

CHORUS/SECOND MAIN RIFF!
E--------------------------------------------------------------------
B--------------------------------------------------------------------
G--------------------------------------------------------------------
D--12-12-12-12-12-12-12-12-8-8-8-8-5-5-5-----------------------------
A--12-12-12-12-12-12-12-12-8-8-8-8-5-5-5-----------------------------
D--12-12-12-12-12-12-12-12-8-8-8-8-5-5-5-----------------------------

Third Main Riff!
E--------------------------------------------------------------------
B--------------------------------------------------------------------
G--------------------------------------------------------------------
D--2-2-2-6-6-6-2-2-2-6-6-6-X-X-X-X-----------------------------------
A--2-2-2-6-6-6-2-2-2-6-6-6-X-X-X-X-----------------------------------
D--2-2-2-6-6-6-2-2-2-6-6-6-X-X-X-X-----------------------------------

Bridge Thingy!
E--------------------------------------------------------------------
B--------------------------------------------------------------------
G--------------------------------------------------------------------
D----0-0-2-0-3-0-0-2-0-0-3-0-2---------------------------------------
A----0-0-2-0-3-0-0-2-0-0-3-0-2---------------------------------------
D----0-0-2-0-3-0-0-2-0-0-3-0-2---------------------------------------
Comments