Amen - Justified Chords & Tabs

 

Justified Chords & Tabs

Amen Chords & Tabs

Version: 1 Type: Tab 0 ratings
1 star 2 stars 3 stars 4 stars 5 stars
comments

Justified Tab

   
-------------------------------------------------------------------------------
			     Justtified - AMEN
-------------------------------------------------------------------------------
Tabbed by: MattTheArsonist
Email: Disturbedelf@msn.com

Tuning: Dropped D (DADGBe)

(Guitar 1) Intro (0:00/0:05)
e|---------------------------------------------------|
B|---17b---------------------------------------------|
G|---16b---------------------------------------------|Play with rhthym of CD
D|---------------------------------------------------|
A|---------------------------------------------------|
D|---------------------------------------------------|

(Guitar 2) Intro (Played at same)
e|--------------------------------|
B|---14-14-14-14-14-14-14-14---15-|
G|---x--x--x--x--x--x--x--x----x--|
D|---11-11-11-11-11-11-11-11---12-|
A|--------------------------------|
D|--------------------------------|

e|--------------------------------------------------|
B|--17-17-17-17-17-17-17-17-17-17-17-17-17-17-17----|Bend the 17
G|--x--x--x--x--x--x--x--x--x--x--x--x--x--x--x-----|
D|--14-14-14-14-14-14-14-14-14-14-14-14-14-14-14----|
A|--------------------------------------------------|
D|--------------------------------------------------|


(Guitar 1) Verse (Main Riff) (0:06/0:13)
e|----------------------|
B|----------------------|
G|----------------------|
D|--------4b------------|
A|---2-0-----0-2-0-2-0--|
D|---2-0-----0-2-0-2-0--|x4

(Guitar 2) 
e|------------------------------|
B|------------------------------|
G|-----------5-5-7-7------------|
D|-----------5-5-7-7------------|
A|-----------3-3-5-5------------|
D|------------------------------|
Play the guitar one part and one the fourth one play the C and D 
instead of the D and E. 

Mid-Verse interlude (Guitar 1 only) (0:13/0:16)
e|----------------------|
B|----------------------|
G|----------------------|
D|--------4b------------|
A|---2-0-----0-2-0-2-0--|
D|---2-0-----0-2-0-2-0--|x2


Then do the Verse twice at (0:16/0:29)

Pre-Chorus Riff (Guitars 1&2) (0:30/0:42)
e|---------------| 
B|---------------|
G|---------------| 
D|-2--3--0--7-6--| 
A|-2--3--0--7-6--| 
D|-2--3--0--7-6--|x2

(0:43/0:45)
e|----------------|
B|----------------|
G|----------------|
D|-2-3-2-3-5-7----|
A|-2-3-2-3-5-7----|
D|-2-3-2-3-5-7----|


Chorus (Guitar 1) (0:45/0:56)
e|-------------------------------|
B|-------------------------------|
G|-------------------------------|
D|-2-2-2-2-2-2-2--0-0-0-0-0-0-0--|
A|-2-2-2-2-2-2-2--0-0-0-0-0-0-0--|
D|-2-2-2-2-2-2-2--0-0-0-0-0-0-0--|

e|----------------|-----------------|
B|----------------|-----------------|
G|-5-5-5-5-5-5-5--|-5-5-5-5-5-5-5---|
D|-5-5-5-5-5-5-5--|-5-5-5-5-5-5-5---|
A|-3-3-3-3-3-3-3--|-3-3-3-3-3-3-3---|
D|----------------|-----------------|

e|-------------------------------|
B|-------------------------------|
G|-------------------------------|
D|-2-2-2-2-2-2-2--0-0-0-0-0-0-0--|
A|-2-2-2-2-2-2-2--0-0-0-0-0-0-0--|
D|-2-2-2-2-2-2-2--0-0-0-0-0-0-0--|

e|----------------|
B|----------------|
G|-5-5-5-5-5-5-5--|
D|-5-5-5-5-5-5-5--|
A|-3-3-3-3-3-3-3--|
D|----------------|

Chorus (Guitar 2)
e|---------------|
B|---------------|
G|--2-3-2-0-2-0--|
D|---------------|
A|---------------|Play throughout chorus.
D|---------------|

Post-Chorus (0:56/1:01)
e|----------------|
B|----------------|
G|----------------|
D|-2-3-2-3-5-7----|
A|-2-3-2-3-5-7----|(Both Guitars)
D|-2-3-2-3-5-7----|

e|----------------------|
B|----------------------|
G|----------------------|
D|--------4b------------|(Guitar one only)
A|---2-0-----0-2-0-2-0--|
D|---2-0-----0-2-0-2-0--|x2

Verse 2 (Guitar 1) (1:02/1:14)
e|----------------------|
B|----------------------|
G|----------------------|
D|--------4b------------|
A|---2-0-----0-2-0-2-0--|
D|---2-0-----0-2-0-2-0--|x8

Verse 2 (Guitar 2) 
e|------------------------------|
B|------------------------------|
G|-----------5-5-7-7------------|
D|-----------5-5-7-7------------|
A|-----------3-3-5-5------------|
D|------------------------------|x2
Play normal riff but at the fourth and eight switch the D and E
to a C and D.

Pre-Chorus 2 (Both Guitars) (1:15/1:29)
e|---------------| 
B|---------------|
G|---------------| 
D|-2--3--0--7-6--| 
A|-2--3--0--7-6--| 
D|-2--3--0--7-6--|x2

e|----------------|
B|----------------|
G|----------------|
D|-2-3-2-3-5-7----|
A|-2-3-2-3-5-7----|
D|-2-3-2-3-5-7----|

Chorus 2 (Guitar 1) (1:30/1:54)
e|-------------------------------|
B|-------------------------------|
G|-------------------------------|
D|-2-2-2-2-2-2-2--0-0-0-0-0-0-0--|
A|-2-2-2-2-2-2-2--0-0-0-0-0-0-0--|
D|-2-2-2-2-2-2-2--0-0-0-0-0-0-0--|

e|----------------|-----------------|
B|----------------|-----------------|
G|-5-5-5-5-5-5-5--|-5-5-5-5-5-5-5---|
D|-5-5-5-5-5-5-5--|-5-5-5-5-5-5-5---|
A|-3-3-3-3-3-3-3--|-3-3-3-3-3-3-3---|
D|----------------|-----------------|x3

e|-------------------------------|
B|-------------------------------|
G|-------------------------------|
D|-2-2-2-2-2-2-2--0-0-0-0-0-0-0--|
A|-2-2-2-2-2-2-2--0-0-0-0-0-0-0--|
D|-2-2-2-2-2-2-2--0-0-0-0-0-0-0--|

e|----------------|
B|----------------|
G|-5-5-5-5-5-5-5--|
D|-5-5-5-5-5-5-5--|
A|-3-3-3-3-3-3-3--|
D|----------------|
[ Tab from: http://www.guitartabs.cc/tabs/a/amen/justified_tab.html ]
Chorus 2 (Guitar 2)
e|---------------|
B|---------------|
G|--2-3-2-0-2-0--|
D|---------------|
A|---------------|
D|---------------|

e|-----------------------|
B|----------------14b----|
G|--9b--12b--14b---------|
D|-----------------------|
A|-----------------------|
D|-----------------------|
Listen to song for rhythm. 

Post-Chorus 2 (Guitar 1) (1:54/2:01)
e|----------------|
B|----------------|
G|----------------|
D|-2-3-2-3-5-7----|
A|-2-3-2-3-5-7----|
D|-2-3-2-3-5-7----|x4

Post-Chorus 2 (Guitar 2)
e|------------------------------------------------------|
B|--14--14--14--14--14--14---15--15--15--15--15--15-----|
G|--13b-13b-13b-13b-13b-13b--14b-14b-14b-14b-14b-14b----|
D|------------------------------------------------------|
A|------------------------------------------------------|
D|------------------------------------------------------|

e|---------------------------------------------------|
B|-17--17--17--17--17--17--17--17--17--17--17--17----|
G|-16b-16b-16b-16b-16b-16b-16b-16b-16b-16b-16b-16b---|
D|---------------------------------------------------|
A|---------------------------------------------------|
D|---------------------------------------------------|


Interlude Riff 1 (2:02/2:15)
e|---------------------------------------------------|
B|------------------------------------------2b-------|(Guitar 2)
G|------------------------------------------2b-------|
D|--2-0---2-2-3-3-2-0---2-0---2-2-3-3-2-0---2b-------|
A|--2-0---2-2-3-3-2-0---2-0---2-2-3-3-2-0------------|
D|--2-0---2-2-3-3-2-0---2-0---2-2-3-3-2-0------------|x2

Interlude Riff 2 (2:16/2:25)
e|------------------------------|
B|------------------------------|(Guitar 2)
G|------------------------------|
D|-2-0-----------2-2-3-3-2-0----|
A|-2-0-----------2-2-3-3-2-0----|
D|-2-0-----------2-2-3-3-2-0----|x3

e|-------------------------|
B|-------------------------|(Guitar 1)
G|-------------------------|
D|------4b-----------------|
A|-2-0-----0-2-0-2-0-------|
D|-2-0-----0-2-0-2-0-------|
  Play with little riff above.

Filler (2:26/2:33)
e|----------------------|
B|----------------------|
G|----------------------|
D|--------4b------------|
A|---2-0-----0-2-0-2-0--|
D|---2-0-----0-2-0-2-0--|x4

Chorus 3 (Guitar 1) (2:35/2:46)
e|-------------------------------|
B|-------------------------------|
G|-------------------------------|
D|-2-2-2-2-2-2-2--0-0-0-0-0-0-0--|
A|-2-2-2-2-2-2-2--0-0-0-0-0-0-0--|
D|-2-2-2-2-2-2-2--0-0-0-0-0-0-0--|

e|----------------|-----------------|
B|----------------|-----------------|
G|-5-5-5-5-5-5-5--|-5-5-5-5-5-5-5---|
D|-5-5-5-5-5-5-5--|-5-5-5-5-5-5-5---|
A|-3-3-3-3-3-3-3--|-3-3-3-3-3-3-3---|
D|----------------|-----------------|

e|-------------------------------|
B|-------------------------------|
G|-------------------------------|
D|-2-2-2-2-2-2-2--0-0-0-0-0-0-0--|
A|-2-2-2-2-2-2-2--0-0-0-0-0-0-0--|
D|-2-2-2-2-2-2-2--0-0-0-0-0-0-0--|

e|----------------|
B|----------------|
G|-5-5-5-5-5-5-5--|
D|-5-5-5-5-5-5-5--|
A|-3-3-3-3-3-3-3--|
D|----------------|

Chorus 3 (Guitar 2)
e|---------------|
B|---------------|
G|--2-3-2-0-2-0--|
D|---------------|
A|---------------|
D|---------------|

Post-Chorus 3 (Guitar 1) (2:46/2:53)
e|----------------|
B|----------------|
G|----------------|
D|-2-3-2-3-5-7----|
A|-2-3-2-3-5-7----|
D|-2-3-2-3-5-7----|x4

Post-Chorus 3 (Guitar 2) 
e|------------------------------------------------------|
B|--14--14--14--14--14--14---15--15--15--15--15--15-----|
G|--13b-13b-13b-13b-13b-13b--14b-14b-14b-14b-14b-14b----|
D|------------------------------------------------------|
A|------------------------------------------------------|
D|------------------------------------------------------|

e|---------------------------------------------------|
B|-17--17--17--17--17--17--17--17--17--17--17--17----|
G|-16b-16b-16b-16b-16b-16b-16b-16b-16b-16b-16b-16b---|
D|---------------------------------------------------|
A|---------------------------------------------------|
D|---------------------------------------------------|

Main Riff (Guitar 1&2) (2:53/3:03)
e|----------------------|
B|----------------------|
G|----------------------|
D|--------4b------------|
A|---2-0-----0-2-0-2-0--|
D|---2-0-----0-2-0-2-0--|x6

Outro (Guitar 1) (3:03/3:10)
e|---------------|
B|---------------|
G|---------------|
D|-2-3-2-3-5-7---|
A|-2-3-2-3-5-7---|
D|-2-3-2-3-5-7---|x3

e|---------|
B|---------|
G|---------|
D|-2-3-2---|
A|-2-3-2---|
D|-2-3-2---|

Outro (Guitar 2) 
e|------------------------------------------------------|
B|--14--14--14--14--14--14---15--15--15--15--15--15-----|
G|--13b-13b-13b-13b-13b-13b--14b-14b-14b-14b-14b-14b----|
D|------------------------------------------------------|
A|------------------------------------------------------|
D|------------------------------------------------------|

e|---------------------------------------------------|
B|-17--17--17--17--17--17--17--17--17--17--17--17----|
G|-16b-16b-16b-16b-16b-16b-16b-16b-16b-16b-16b-16b---|
D|---------------------------------------------------|
A|---------------------------------------------------|
D|---------------------------------------------------|



My guitar instructor and I went over this song completely and we're 100% sure this is
right. I also saw AMEN play this live.


If you wish to, copy and paste this onto another site, just give credit to me, and of course AMEN.
Comments